G Love And Special Sauce - Babys Got Sauce Chords & Tabs

 

Babys Got Sauce Chords & Tabs

G Love And Special Sauce Chords & Tabs

Version: 1 Type: Tab 0 ratings
1 star 2 stars 3 stars 4 stars 5 stars
comments

Babys Got Sauce Tab

------------------------------------------------------------------------------------

"Baby's Got Sauce"
G. Love & Special Sauce
G. Love & Special Sauce

------------------------------------------------------------------------------------

I couldn't really figure out the rest of the song because I'm too lazy, but maybe I'll 
it later. This is the main riff played throughout the song.
[ Tab from: http://www.guitartabs.cc/tabs/g/g_love_and_special_sauce/babys_got_sauce_tab.html ]
e|---------------------------------------------------------------------------|
B|------6-4--4---------------------------------------------------------------|
G|-3/4--6-4--4---------------------------------------------------------------|
D|-4/5-----------------------------------------------------------------------|
A|---------------------------------------------------------------------------|
E|---------------------------------------------------------------------------|

or

e|------3-1--1---------------------------------------------------------------|
B|-3/4--4-2--2---------------------------------------------------------------|
G|-4/5-----------------------------------------------------------------------|
D|---------------------------------------------------------------------------|
A|---------------------------------------------------------------------------|
E|---------------------------------------------------------------------------|

Enjoy :-)
Comments