G3 - Red House Chords & Tabs

 

G3 Chords & Tabs

Version: 1 Type: Tab 0 ratings
1 star 2 stars 3 stars 4 stars 5 stars
comments

Red House Tab

   
Tabbed by Voodoo13 !!

Eric Johnson
-----------11-------   -----|------11s----10~~--    ----|
-------------10----- X4-----|------10s------9--- X4 ----|
----------11~~------   -----|------11s-------10-    ----|
----------------------------|---------------------------|
----------------------------|---------------------------|
----------------------------|---------------------------|


------|--------------7-10s12-10~-|---7--------------------|
------|---10b-10-7--7------------|-----10p9p7--9p8p7-9s17-|
------|-----------9--------------|------------------------|
----9-|--------------------------|------------------------|
----9-|--------------------------|------------------------|
----7-|--------------------------|------------------------|


--------------------------|---------------------------|
--------------------------|---------------------------|
--7b8---------------------|---7h9b8-7~~----9-7-7-7-9--|
----------9-7-------------|----------------7-7-9-7-9--|
--------------9-7---------|--------------------7------|
-----------------10-7-----|---------------------------|

[ Tab from: http://www.guitartabs.cc/tabs/g/g3/red_house_tab.html ]
----7------------------------|-------------------------|
---7--10--10p9p7-9p8p7-7b8---|-------------------------|
--x-----------------------7~~|-------------------------|
-9---------------------------|---7-9s11-9-7~~----------|
-----------------------------|--9----------------------|
-----------------------------|-------------------------|



--7-7--------------------|-----------------12b12b12bp10--|
-7-7-10------------------|--------10-12-12-------------12|
-----------9b10-9p7------|-----7-9-----------------------|
-------------------7-----|-7-9---------------------------|
-------------------------|-------------------------------|
-------------------------|-------------------------------|



-------------------------------------------------------|
----------12-12-----10p9p7-9p8p7-----------------------|
--12-10---------15---------------7b8-7-9-7-9-----------|
-------12-----------------------------------9~---------|
-------------------------------------------------------|
-------------------------------------------------------|
s: slide
b: bend
p: pull-off 
~: vibrato
Please Rate will post other parts if i figure them out :)
Comments