Fyp - Die Young Chords & Tabs

 

Die Young Chords & Tabs

Fyp Chords & Tabs

Version: 1 Type: Bass Tab 0 ratings
1 star 2 stars 3 stars 4 stars 5 stars
comments

Die Young Bass Tab

band: F.Y.P 
song: Die Young
[ Tab from: http://www.guitartabs.cc/tabs/f/fyp/die_young_btab.html ]
  Verse                           x3
g------------------------------
d*-----------------------------*
a*-----------5-5-5-5--7-7-7-7--*
e---5-5-5-5--------------------
"I don't care for anything,I can't stand this anyway"

g----------------------------------
d*-------------------------4-0-2-2-
a*-----------------5-5-5-5---------
e---5-5-5-5-5-5-5-5----------------
"Hey mom and dad"

Tabbed by the Muffin Man (bassist for a crappy punk band)
Comments