Fyp - 2000 Ad Chords & Tabs

 

2000 Ad Chords & Tabs

Fyp Chords & Tabs

Version: 2 Type: Bass Tab 0 ratings
1 star 2 stars 3 stars 4 stars 5 stars
comments

2000 Ad Bass Tab

2000. AD


F.Y.P 

                                 

INTRO: 
[ Tab from: http://www.guitartabs.cc/tabs/f/fyp/2000_ad_btab_ver_2.html ]
G:----------------------------------------------------- 
D:----------------------------------------------------- 
A:------------------7-7-7-7-7-7------------------------ 
E:-7-7-7-7-7-7---------------------4-5-7-7-7-7-7-7----- 



VERSE AND CHORUS: 

G:------------------------------------ 
D:------------------------------------ 
A:--7-7-7-7-7-7----------------------- 
E:-----------------4-5-7-7-7-7-7-7---- 

THATS THE WHOLE SONG!! 

by  Ben meyer: benm@oakweb.com
Comments