Fuzon - Sagar Chords & Tabs

 

Sagar Chords & Tabs

Fuzon Chords & Tabs

Version: 1 Type: Tab 0 ratings
1 star 2 stars 3 stars 4 stars 5 stars
comments

Sagar Tab

tab by SHAHRUKH OMAR
hi 

well here is a little bit of tab for "sagar" by "fuzon"
a real big hit 90% due to shallum and his majestic guitar tabs

this tab is for an electric with a high pitch
treble tone and a good deal of delay effect.

the timing and strumming is very important so practice it alot and you 
will get hold of it
[ Tab from: http://www.guitartabs.cc/tabs/f/fuzon/sagar_tab.html ]
e|---8-8-8-8-8--11-11-10-10-10-8-|
B|---9-9-9-9--9-8--8--8--8--8--8-|
G|-8-8-8-8-8--8-8--8--8--8--8--8-|
D|8--8-8-8-8--8-8--8--8--8--8--8-|
A|-------------------------------|
E|-------------------------------|


e|---8-8-8-8-8--11-11-10-10-10-8-|
B|---9-9-9-9--9-8--8--8--8--8--8-|
G|-8-8-8-8-8--8-8--8--8--8--8--8-|
D|8--8-8-8-8--8-8--8--8--8--8--8-|
A|-------------------------------|
E|-------------------------------|


try to keep the the tone as mute as possible without taking out the treble

        the solo in between song will be out soon ;)

song:sagar
artist:fuzon
tabs by : shahrukh omar
Comments