Futureheads - Decent Days And Nights Chords & Tabs

 

Decent Days And Nights Chords & Tabs

Futureheads Chords & Tabs

Version: 2 Type: Tab 0 ratings
1 star 2 stars 3 stars 4 stars 5 stars
comments

Decent Days And Nights Tab

ace band....some one tab first day

the is a brand me problem....
e-4------2------0---------0-|
b-5------4------2---------0-|
g-6------4------2---------1-|
d-6------4------2---------2-|
a-4------2------0---------2-|
e-4------2------0---------0-|

but you looked confused...
e-4-x-x----2-x-x----0-0-0-0-x-----0-|
b-5-x-x----4-x-x----2-2-2-2-x-----0-|
g-6-x-x----4-x-x----2-2-2-2-x-----1-|
d-6-x-x----4-x-x----2-2-2-2-x-----2-|
a-4-x-x----2-x-x----0-0-0-0-x-----2-|
e-4-x-x----2-x-x----0-0-0-0-x-----0-|
[ Tab from: http://www.guitartabs.cc/tabs/f/futureheads/decent_days_and_nights_tab_ver_2.html ]
if you work it out tell me what you find..
e-4-4-4-4-4---2-2-2-2-2----------------------xx--|
b-5-5-5-5-5---4-4-4-4-4----------------------xx--|
g-6-6-6-6-6---4-4-4-4-4----------------------xx--|
d-6-6-6-6-6---4-4-4-4-4--------9-9-9-9---9---xx--|
a-4-4-4-4-4---2-2-2-2-2--------7-7-7-7---7---xx--|
e-4-4-4-4-4---2-2-2-2-2------0---------0---0-xx--|

the least you can do is show....
e-7----------4--2-2--0--0-0-|
b-9----------5--4-4--2--0-0-|
g-9----------6--4-4--2--1-1-|
d-9----------6--4-4--2--2-2-|
a-7----------4--2-2--0--2-2-|
e-7----------4--2-2--0--0-0-|

say what you see...
e-----------------------xx---x2---4-4-4-4-4---2-2-2-2-2-|
b-----------------------xx---x2---5-5-5-5-5---4-4-4-4-4-|
g-----------------------xx---x2---6-6-6-6-6---4-4-4-4-4-|
d--------9-9-9-9---9----xx---x2---6-6-6-6-6---4-4-4-4-4-|
a--------7-7-7-7---7----xx---x2---4-4-4-4-4---2-2-2-2-2-|
e-------0---------0---0-xx---x2---4-4-4-4-4---2-2-2-2-2-|


thats it really.sounds excellant on an acoustic 2

tabbed by stu.f    www.myspace.com/stu_f     boysintheband.co.uk forum member
Comments