Future Leaders Of The World - Unite Chords & Tabs

 

Unite Chords & Tabs

Future Leaders Of The World Chords & Tabs

Version: 1 Type: Tab 0 ratings
1 star 2 stars 3 stars 4 stars 5 stars
comments

Unite Tab

   
Tab/Song: Unite
Group: Future Leaders Of The World
Tabber: Quinton (numberone_marine@yahoo.com)
Our Band: (www.myspace.com/unfinishedproject)

Ok you guys.. I must admit, I wasnt the hardcore FLOTW fan until this past Tuesday, I 
them live with Submersed and Alter Bridge, but I just really started listening to the cd 
and I havn't seen a tab on the net for it... so this is what I got for the song Unite,:

Standard Tuning: EADGBe

Chords Used:   C   G   G#
           e  --- --- ---|
           B  --- --- ---|
           G  -5- -4- -5-|
           D  -5- -5- -6-|
           A  -3- -5- -6-|
           E  --- -3- -4-|


Intro/Verse:
[ Tab from: http://www.guitartabs.cc/tabs/f/future_leaders_of_the_world/unite_tab.html ]
   C               G#
e|--------------8---------------6-|
B|--------3---------------3-------|
G|----4-----4---------4-----4-----|
D|--------------------------------|
A|--3---3-----3-------------------|
E|------------------4---4-----4---|

    C                      G#                       G
e|--------------8--10p8-------------------------------------|
B|--------3--------------------------4h6p4------------------|
G|----4-----4------------------5-----------5------------4---|
D|---------------------------6---6-----------6--------5-----|
A|--3---3-----3---------------------------------------------|
E|-------------------------4-------4----------------3-----3-|


ok the Pre-chorus, Chorus, and the Bridge are just the same chords as follows:

C,G,G#


Thats really the whole song....
So simple.. I should have the whole cd tabbed out soon..
Laidher,
Quinton
Comments