Future Leaders Of The World - Let Me Out Chords & Tabs

 

Let Me Out Chords & Tabs

Future Leaders Of The World Chords & Tabs

Version: 2 Type: Tab 0 ratings
1 star 2 stars 3 stars 4 stars 5 stars
comments

Let Me Out Tab

----------------------------------------------------------------------------
			     Let me out - Future Leaders of the World


Tabbed by:Chris Sylvestre
Email:mr_shitty@hotmail.com
Tuning:Standard

This is how i play it in standdard tuning. I find this more practical because its a
pain to always tune your guitar a different way for every song! Email me if you have
questions or comments.

Intro ( I found some peace.... )

e|---------------------------------------------------------------------------|
B|---------------------------------------------------------------------------|
G|------------------------2-----3-3-3-3----6---------------------------------
D|---------3--2-------------3---4-4-4-4----6---------------------------------|
A|-----1--------------3---------4-4-4-4----4---------------------------------
E|--1---------------1-----------2-2-2-2--------------------------------------|

Chorus ( Let me out, Let me out... )
[ Tab from: http://www.guitartabs.cc/tabs/f/future_leaders_of_the_world/let_me_out_tab_ver_2.html ]
e|---------------------------------------------------------------------------|
B|---------------------------------------------------------------------------|
G|-----3-3-------6-6-6-------------------------------------------------------|
D|-----3-3--3-4--6-6-6---4------3--------------------------------------------|
A|-----1-1--3-4--4-4-4---4-(4x)-3-(3x)---------------------------------------|
E|----------1-2----------2------1-------------------------------------------
-|


Inerlude ( Now and forever... )

e|----------x----------------------------x-----------------------------------|
B|----------x----------------------------x-----------------------------------|
G|---3-3----x-----------------------6-6--x-----------------------------------|
D|---3-3----x---3-3---xx--4-4--x-x--6-6--x---4-4--x-x--3-3-xx----------------|
A|---1-1----x---3-3---xx--4-4--x-x--4-4--x---4-4--x-x--3-3-xx----------------|
E|----------x---1-1---xx--2-2--x-x-------x---2-2--x-x--1-1-xx----------------|



Playing Order

Intro 4X
Chorus 4X Distortion
Verse 1 ( play same notes as chorus only without distortion )
Chorus 4X
Interlude 4X
Verse 2 ( Same as the first )
Chorus 4X
Ending 4X ( same notes as interlude, play it by ear )
Comments