Future Leaders Of The World - Let Me Out Chords & Tabs

 

Let Me Out Chords & Tabs

Future Leaders Of The World Chords & Tabs

Version: 1 Type: Tab 0 ratings
1 star 2 stars 3 stars 4 stars 5 stars
comments

Let Me Out Tab

   
Author/Artist: Future Leaders of the World
Title: Let Me Out
Album: Level IV
Transcribed by: Chris Hallam
Email: chris3764@hotmail.com

This tab goes out to my band consisting of Brandon, Peaches, Ross and I.

Tuning is dropped D down a half step (Low to highest: Db ab Db gb bb eb)

INTRO / 1ST VERSE

------------------------------------------------------------------------------|
------------------------------------------------------------------------------|
------0---------3-----------------------------0-------------------------------|
--------4---------4---5---5-5-5----0--------4---4-----------------------------|
---2---------4--------5---5-5-5----0----5---------5-0-------------------------|
-4---------4----------5---5-5-5----0------------------------------------------|

CHORUS
[ Tab from: http://www.guitartabs.cc/tabs/f/future_leaders_of_the_world/let_me_out_tab.html ]
------------------------------------------------------------------------------|
------------------------------------------------------------------------------|
-4--4-4-4--------------------------------------------------------------------|
-4--4--4-4--4-5---0---0-0--0-0-----5-5-5-5-4-4-4------------------------------|
-2--2--2-2--4-5---0---0-0--0-0-----5-5-5-5-4-4-4------------------------------|
------------4-5---0---0-0--0-0-----5-5-5-5-4-4-4------------------------------|

The second verse is basically the chorus with a little picking.  Listen to the song to 
it up.

BRIDGE

------------------------------------------------------------------------------|
------------------------------------------------------------------------------|
-4-4-x-x-x-x-x-x--------------------------------------------------------------|
-4-4-x-x-x-x-x-x-4-4-x-x-5-5-x-x-0-0-x-x-x-x-x-x-5-5-x-x-4-4-x-x--------------|
-2-2-x-x-x-x-x-x-4-4-x-x-5-5-x-x-0-0-x-x-x-x-x-x-5-5-x-x-4-4-x-x--------------|
-----------------4-4-x-x-5-5-x-x-0-0-x-x-x-x-x-x-5-5-x-x-4-4-x-x--------------|

There's the basics of the song.  Just listen to it to fill in the details.
Comments