Future Leaders Of The World - Killpop Chords & Tabs

 

Killpop Chords & Tabs

Future Leaders Of The World Chords & Tabs

Version: 2 Type: Tab 0 ratings
1 star 2 stars 3 stars 4 stars 5 stars
comments

Killpop Tab

   
Artist: Future leaders of the World
Album: LVL IV
Song: Kill Pop

ok, this is the intro/chorus and pretty much the main riff of Kill Pop, a very powerful
song, in my opinion....alright check it out, this is in drop Db tuning which looks like
this: Db Ab Db Gb Bb eb

x = mute all strings, harmonic
s = slur the notes listed
~ = let ring

[ Tab from: http://www.guitartabs.cc/tabs/f/future_leaders_of_the_world/killpop_tab_ver_2.html ]
-----------------------------|
-----------------------------|
-----------------------------|
-xxxxxx-----2----------------|  X3
-xxxxxx--------1s2s3-3-2-1---|
-xxxxxx--2-------------------|

----------------------|
----------------------|
----------------------|
----2~----------------|
--------1s2s3--3s2s1~-|
-2~-------------------|


and the slight variation at the end of the chorus:
--------------------|
--------------------|
--------------------|
----2---------------|
-------1s2s3-1s2s3--|
-2------------------|

so thats the foundation of "Kill Pop" by Future Leaders of the World.
Here's the lyrics, just for your entertainment pleasure...:)
Comments