Future Leaders Of The World - Everyday Chords & Tabs

 

Everyday Chords & Tabs

Future Leaders Of The World Chords & Tabs

Version: 1 Type: Tab 0 ratings
1 star 2 stars 3 stars 4 stars 5 stars
comments

Everyday Tab

   
This is the intro part for guitar 
it is also what the guitar plays for the chorus
i love this song i could play this part with the song for hours
b=bend

(Drum plays first then guitar comes in on this)
[ Tab from: http://www.guitartabs.cc/tabs/f/future_leaders_of_the_world/everyday_tab.html ]
|-------------------|
|-------------------|
|-------------------|
|-5-55----7b--------|
|-x-xx9-9---6-67-77-|
|-8-887-7---4-45-55-|

Then later the guitar comes in and plays this on the verse

|-------------|
|--5----------|
|-----9--6--7-|
|-8--7--4--5--|
|-------------|
|-------------|
|-------------|
Comments