Further Seems Forever - The Sound Chords & Tabs

 

The Sound Chords & Tabs

Further Seems Forever Chords & Tabs

Version: 1 Type: Bass Tab 0 ratings
1 star 2 stars 3 stars 4 stars 5 stars
comments

The Sound Bass Tab

Further Seems Forever- The Sound
By:glssjwTx

No one better copy my tabs and use it for their credit. there's no point either.


Tuning: Half Step Down ( Eb Ab Db Gb )

  Intro
G|---------------------------------------------------------------------------|
D|---------------------------------------------------------------------------|
A|-7-7-77----------4-4-44----------------------------------------------------|
E|-------5-5-55-5-5------7-7-77-7-7------------------------------------------|

G|---------------------------------------------------------------------------|
D|-7-7-77-7-7-7-77h97-7-77-77-7-777h97---------------------------------------|
A|---------------------------------------------------------------------------|
E|---------------------------------------------------------------------------|

  Verse
G|---------------------------------------------------------------------------|
D|---------------------------------------------4444--------------------------|
A|-4444444444444444----------------444466667777------------------------------|
E|-----------------5555555577777777----------------5555555555555555----------|

  
G|---------------------------------------------------------------------------|
D|-64----64----64--42----42----42--64----64----64--42----42----42------------|
A|---4444--4444--44--2222--2222--22--4444--4444--44--2222--2222--------------|
E|---------------------------------------------------------------------------|

  Pre-chorus
G|---------------------------------------------------------------------------|
D|---------------------------------------------------------------------------|
A|-------------------4-4-444--4-44-7/9---------------------------------------|
E|-5-55-555-5-55-5555-------5----------5-55-55-5-55-5555-7777777777777777----|
[ Tab from: http://www.guitartabs.cc/tabs/f/further_seems_forever/the_sound_btab.html ]
  Chorus
G|-----------------------------------------------------------------------------|
D|-----------------------------------------------------------------------------|
A|----4--7----77-------4-4--4----7-----77-------4-4---4--7-----77-7------------|
E|-55--7--7-55--77-5-7----55-7-7---7-55--77-5-7----5-5-7--7-5-5----7-7-5-7-7---|

G|---------------------------------------------------------------------------|
D|---------------------------------------------------------------------------|
A|-4-4--4---7-----77-7-------------------------------------------------------|
E|----55-7-7-7-5-5----7-7-5-7-7----------------------------------------------|

  Fill ( After 1st Chorus)
G|---------------------------------------------------------------------------|
D|-7-7-77-7-7-7-77h97-7-77-77-7-777h97---------------------------------------|
A|---------------------------------------------------------------------------|
E|---------------------------------------------------------------------------|
 

  Bridge ( After 2nd Chorus ) 
G|---------------------------------------------------------------------------| 
D|-----------------------------4444------------------------------------------| 
A|-----------------444466667777--------------------4444----7777--7h9---------| 
E|-5555555577777777----------------5555555577777777----7777----55------------| 

G|---------------------------------------------------------------------------| 
D|-----------------------------4444------------------------------------------| 
A|-----------------444466667777--------------------444-444-------------------| 
E|-5555555577777777----------------5555555577777777-------x14/---------------| 

outro 
G|---------------------------------------------------------------------------| 
D|---------------------------------------------------------------------------| 
A|-444-444/------------------------------------------------------------------| 
E|---------------------------------------------------------------------------| 

enjoy!
Comments