Further Seems Forever - Snowbirds And Townies Chords & Tabs

 

Snowbirds And Townies Chords & Tabs

Further Seems Forever Chords & Tabs

Version: 1 Type: Tab 0 ratings
1 star 2 stars 3 stars 4 stars 5 stars
comments

Snowbirds And Townies Tab

   
Song: Snowbirds and Townies
Artist: Further Seems Forever
Album: The Moon is Down
Tabbed by: Mark (emo_kid3@hotmail.com)

I heard some good reviews of my first FSF tab, On Legendary,
so I decided I’d try out another one of their songs.  Just as a warning,
a lot of the timings are really strange, so you should listen 
closely to the song for them.

*TUNED ½ STEP DOWN* (Eb, Ab, Db, Gb, Bb, Eb)

Intro/Verse (Guitar 1, light distortion)
eb-----------------------------------------------------------
Bb--------5p4--------------------------5p4-----------4h5p4---
Gb-4---4------4-------4-----4-------4------4------4----------
Db------------------4-----4-------2--------------2-----------
Ab---4------------2-----4-------0--------------0-------------
Eb-----------------------------------------------------------

Pre-Chorus “On these boats…” 
*note: you REALLY have to listen to the song to get the right pattern,
I indicated the number of beats each chord should be*
(Guitar 2, distorted)
eb------------------------------------------------
Bb------------------------------------------------
Gb-2------4------2------6------2------6------2----
Db-2(x4)--4(x2)--2(x1)--6(x1)--2(x3)--6(x1)--2(x1)
Ab-0------2------0------4------0------4------0----
Eb------------------------------------------------

-----------------------------------
-----------------------------------
-4------6------2------6------2-----
-4(x2)--6(x1)--2(x1)--6(x1)--2(x2)-
-2------4------0------4------0-----
-----------------------------------

Pre-Chorus (Guitar 1, distorted, faint)
eb-7------------
Bb----4---------  (Just keep repeating that)
Gb-------6------
Db--------------
Ab--------------
Eb--------------

Chorus “And better things…” (Guitar 2, distorted) 
eb-----------------------------------------------------------------------------
Bb-----------------------------------------------------------------------------
Gb-6-------------2------4-------6------2------6------8------9------2------4----
Db-6(x4)--2------2(x3)--4(x1)---6(x4)--2(x4)--6(x1)--8(x1)--9(x1)--2(x3)--4(x1)
Ab-4------2(x1)--0------2-------4------0------4------6------7------0------2----
Eb--------0--------------------------------------------------------------------

---------------------------------------
---------------------------------------
-6------2------6------8------(9)-------   *note: the chord in brackets is
-6(x4)--2(x4)--6(x1)--8(x1)--(9)(x2)---only played the 2nd time you 
-4------0------4------6------(7)-------     play the chorus*
---------------------------------------
[ Tab from: http://www.guitartabs.cc/tabs/f/further_seems_forever/snowbirds_and_townies_tab.html ]
Chorus (Guitar 1, distorted)
eb-9----9----9----9-------------------------------------------------------------
Bb---7----7----7----7-----------------------------------------------------------
Gb-----9----9----9----9-----------2------4------6-----2------8------9------8-----
Db-------------------------2------2(x3)--x(x1)--x(4)--2(x1)--x(x1)--x(x3)--x(x1)
Ab-------------------------2(x1)--0------2------2-----0------9------7------6----
Eb-------------------------0----------------------------------------------------

-----------------------------------------------------------------------
-----------------------------------------------------------------------
-6------2------4------6------2------8------9------6------8------(6)---- 
-x(x1)--2(x3)--x(x1)--x(x4)--2(x1)--x(x1)--x(x2)--x(x1)--x(x1)--(x)(x2)   
-4------0------2------4------0------6------7------2------6------(4)----
-----------------------------------------------------------------------

Bridge Pt.1 “This winter is lasting forever…” (Guitar 1, light dist)
*play 2 times, and second time play chord in brackets*
eb--------------------------------0------------------------------
Bb-----9-----9-----9-----9----------4------------4---------------
Gb----9-----9-----9-----9-------2------2-------4---4------(6)----
Db----------------------------2--------------4--------4---(x)(x3)
Ab-7-----6------------------0--------------2--------------(4)----
Eb-------------9-----7-------------------------------------------

Bridge Pt.2 “Out of my arms…” (Guitar 1, dist)
eb---------------------------------
Bb-4b5r4p0---------4b5r4p0---------
Gb------------2-------------6------  
Db------------2-------------6------
Ab------------0-------------4------
Eb---------------------------------
Play Bridge Pt. 1 again, but the second time through end it like this:
eb--------------------------------------
Bb-----9----9----9----9-----------------
Gb---9----9----9----9-------------------
Db------------------------2------4------
Ab-7----6-----------------2(x2)--4(x2)--
Eb-----------9----7-------0------2------
Outro: (Guitar 1, distorted)
eb------0-----------0--2--4--5---5--7---7--7---7--7---7--7---7-
Bb---------0--2--4-------------5------5------5------5------5---
Gb-1h2---------------------------------------------------------
Db-------------------------------------------------------------
Ab-------------------------------------------------------------
Eb-------------------------------------------------------------

Outro: (Guitar 2, distorted)
eb-----------------------------------------------------
Bb-----------------------------------------------------
Gb-9-9-9--9-9-9--6-6-6--4-4-4--2-2-2-2-2-2-4-4-4-4-4-4-
Db-9-9-9--9-9-9--6-6-6--4-4-4--2-2-2-2-2-2-4-4-4-4-4-4-
Ab-7-7-7--6-6-6--4-4-4--2-2-2--0-0-0-0-0-0-2-2-2-2-2-2-
Eb-----------------------------------------------------

If played correctly, that should be pretty close to perfect.
Email any questions or comments to me at emo_kid3@hotmail.com
Comments