Further Seems Forever - Pride War Chords & Tabs

 

Pride War Chords & Tabs

Further Seems Forever Chords & Tabs

Version: 1 Type: Tab 0 ratings
1 star 2 stars 3 stars 4 stars 5 stars
comments

Pride War Tab

   
Band: Further Seems Forever
Song: Pride War
CD: of How To Start A Fire
Tabbed by: Collin Scott (basskid7@hotmail.com)


Further Seems Forever tunes down a half step (Eb Ab Db Gb Bb Eb)
h  = hammer-on
<> = natural harmonic
/  = slide up

::GUITAR 1::

Intro/Chorus
Eb|----------0--------------------------------------------------
Bb|---00-0---0--------00-0--------------------------------------
Gb|---44-4------------44-4---77-77------------------------------
Db|--------------------------77-77------------------------------
Ab|-2------------------------55-55------------------------------
Eb|--------2----0h2h3-------------------------------------------

Verse
Eb|------------0------------------------------------------------
Bb|-------3------3----------------------------------------------
Gb|-----4----4-----4--------------------------------------------
Db|---0---------------------------------------------------------
Ab|-2-----------------------------------------------------------
Eb|-------------------------------------------------------------

Prechorus
Eb|---------------------------------------------------------------------
Bb|---------------------------------------------------------------------
Gb|--4-4-4--6-6-6--7-7-7--11-11-11--14--14-14-14-14-14-14--14--14-14-14-
Db|---------------------------------------------------------------------
Ab|--2-2-2--4-4-4--5-5-5--9--9--9---12--12-12-12-12-12-12--12--12-12-12-
Eb|---------------------------------------------------------------------

Play Chorus again

Filler
Eb|-------------------------------------------------------------
Bb|-------------------------------------------------------------
Gb|-7-7-7-7---7-7-7-7---7-7--77-7-7-----------------------------
Db|-7-7-7-7---7-7-7-7---7-7--77-7-7-----------------------------
Ab|-5-5-5-5---5-5-5-5---4-4--44-4-4-----------------------------
Eb|-------------------------------------------------------------

Bridge  (with tremolo effect)
Eb|---14--------12---------15-14---------12----9----------------
Bb|-------12---------10-----------12----------------------------
Gb|-------------------------------------------------------------
Db|-------------------------------------------------------------
Ab|-------------------------------------------------------------
Eb|-------------------------------------------------------------

Play prechorus again, only play up til the Ab| 9,
hold it there, then repeat it again.

"As if I would fall to pieces" part (The other guitar part has the melody)
Kind of a tricky rhythm, listen to the song for it.
Eb|-------------------------------------------------------------
Bb|-------------------------------------------------------------
Gb|--4-44-4--4--4--4-44-4--4--4--4--4---------------------------
Db|-------------------------------------------------------------
Ab|--2-22-2--2--2--2-22-2--2--2--2--2---------------------------
Eb|-------------------------------------------------------------

Then play the verse again, then the chorus a bunch of times,
then play the filler as the outro.

==========================================================================
::GUITAR 2::
[ Tab from: http://www.guitartabs.cc/tabs/f/further_seems_forever/pride_war_tab.html ]
Intro
Eb|-------------------------------------------------------------
Bb|-------------------------------------------------------------
Gb|-4-44-4-4-44-4-4-44-4-4-44-4---------------------------------
Db|-------------------------------------------------------------
Ab|-2-22-2-2-22-2-2-22-2-2-22-2---------------------------------
Eb|-------------------------------------------------------------

Chorus
Eb|-------------14----------------------------------------------
Bb|-15----15----------15----14----15----14----15--15------------
Gb|-----14----14----14----14----14----14----14--14--------------
Db|---16----16----16----16----16----16----16--------------------
Ab|-------------------------------------------------------------
Eb|-------------------------------------------------------------
continued...
Eb|-17----17----14----14----17----17----14----14----------------
Bb|-----15----15----15----15----15----15----15------------------
Gb|---14----14----14----14----14----14----14------14------------
Db|---------------------------------------------16--------------
Ab|-------------------------------------------------------------
Eb|-------------------------------------------------------------

Verse
Eb|------<12>---------------------------------------------------
Bb|-------------------------------------------------------------
Gb|--<7>----------<7>-------------------------------------------
Db|-------------------<5>---------------------------------------
Ab|-------------------------------------------------------------
Eb|-------------------------------------------------------------

Prechorus
Eb|---------------------------------------------------------------------
Bb|---------------------------------------------------------------------
Gb|--4-4-4--6-6-6--7-7-7--11-11-11--14--14-14-14-14-14-14--14--14-14-14-
Db|---------------------------------------------------------------------
Ab|--2-2-2--4-4-4--5-5-5--9--9--9---12--12-12-12-12-12-12--12--12-12-12-
Eb|---------------------------------------------------------------------

Play Chorus Again

Filler
Eb|--14----14---14----14----------------------------------------
Bb|------14---------14------------------------------------------
Gb|----15---------15-----7-7---77-7-7---------------------------
Db|----------------------7-7---77-7-7---------------------------
Ab|----------------------4-4---44-4-4---------------------------
Eb|-------------------------------------------------------------

Bridge (played very softly)
Eb|-------------------------------------------------------------
Bb|-------------------------------------------------------------
Gb|---4-----/7------7--------2----------------------------------
Db|---4-----/7------7--------2----------------------------------
Ab|---2-----/5------4--------0----------------------------------
Eb|-------------------------------------------------------------

Play the Prechorus again, only instead play up to the Ab| 9 both times.

"As if I would fall to pieces" Part
Eb|-------------------------------------------------------------
Bb|-------------------------------------------------------------
Gb|--4-4-44-------4-4-44----------------------------------------
Db|--4-4-44--5-5--4-4-44--5-5-7-7-------------------------------
Ab|--2-2-22--5-5--2-2-22--5-5-7-7-------------------------------
Eb|----------3-3----------3-3-5-5-------------------------------

Then hold last note and sit for a while.
Then play chorus for the outro, then the filler (only don't play the chords,
hit the Bb| 14 and Gb| 14 strings)
then fade out with the chorus.




I know its not entirely perfect, but its quite close...
I isolated the left and right speakers to figure this out, so
I'm pretty sure that this tab is correct.

If you have any suggestions or complaints as to my tabbing, email me
and I'll change the tab if it sounds closer.
Comments