Further Seems Forever - Pride War Chords & Tabs

 

Pride War Chords & Tabs

Further Seems Forever Chords & Tabs

Version: 1 Type: Bass Tab 0 ratings
1 star 2 stars 3 stars 4 stars 5 stars
comments

Pride War Bass Tab

Band: Further Seems Forever
Song: Pride War

This is in normal tuning and distortion
Its also my first tab so any suggests or corrections would be helpful.
Please Rate it too

Intro: X2 (Guitar only for the first 1)
G ----------------------------------------------------
D-----------------------------------------------------
A-----------------------------------------------------
E----7---5---7---4-4--4-4---7---5---7---4-4--4-4---4/-

Verse 1: 
G--------------------------------------------------------------------
D--------------------------------------------------------------------   X2
A------------------------------------------------------754-----------
E---7777---5555---7777---5-5--5-5/---7777---7-------7777---5-5--5-5/-

G--------------------------------------------------------------------
D--------------------------------------------------------------------
A----------------44444444--55555555--777777777--77777777-------------
E---77777777---------------------------------------------------------

Chorus: Basically the intro
G----------------------------------------------------------
D----------------------------------------------------------
A----------------------------------------------------------
E---7---5---7---4-4--4-4---7---5---7---4-4--4-4---4/-------

G--------------------------------------------------------------
D--------------------------------------------------------------
A----------------------------------754-------------------------
E---7---5---7---4-4--4-4---7---7------7---4444--4444--4-4--4-4-
[ Tab from: http://www.guitartabs.cc/tabs/f/further_seems_forever/pride_war_btab.html ]
Verse 2:
G--------------------------------------------------------
D--------------------------------------------------------	X2
A------------------------------------------4-4-5-5-7-7---
E---7-7--7---5-5--5---7-7--7---4-5--7--------------------

G--------------------------------------------------------
D--------------------------------------------------------	X2
A----------------44444444--55555555--777777777--77777777-
E---77777777---------------------------------------------

G------------------------------------------------------------------
D------------------------------------------------------------------
A------------------------------------------------------------------
E---7--7--5-5-5--5-7--7--5-5-5--5-7--7--5-5-5--5-7--7--5-5-5-5-5-5-

Outro:
G--------------------------------------------------
D--------------------------------------------------
A-----------7----4-5--45-7-7-75574----------------
E---5-7--7-----7------------------------5--5-5-5-5-

G-------------------------------------------------------
D-------------------------------------------------------
A-------------------------------------------------------
E---7---5---7---4-4--4-4---7---5---7---4-4--4-4---4/----

G-------------------------------------------------------
D------------------------------------------------------- X2
A----------------------------------754------------------
E---7---5---7---4-4--4-4---7---7------7---4444---4/-----

G--------------------------------------------------------------
D--------------------------------------------------------------
A----------------------------------754-------------------------
E---7---5---7---4-4--4-4---7---7------7---4444--4444--4-4--4-4-
Comments