Further Seems Forever - On Legendary Chords & Tabs

 

On Legendary Chords & Tabs

Further Seems Forever Chords & Tabs

Version: 1 Type: Tab 0 ratings
1 star 2 stars 3 stars 4 stars 5 stars
comments

On Legendary Tab

Title: On Legendary
Band: Further Seems Forever
Tabber: Mark (emo_kid3@hotmail.com)

There's like almost FSF tabs so I decided to tab this amazing
song myself.  It should be almost perfect. Sorry if it's a 
little complicated; each bar just corresponds with the same 
bar of the other guitars.

*TUNED  STEP DOWN*

Intro/Verse (clean, repeat all 2x)

Guitar 1
-------------------------|----------------------------|
------3----------3-------|-------3----------5-2-------|
----0----0-----0-----0---|-----0-----0-------------2--|
--4----4-----4-----4-----|---4-----4------2------2----|
-5----------5------------|---------------0------------|
-------------------------|-0--------------------------|

--------------------2----|--------------------------|
-------------------------|-----------------------3--|
-----0-----0----0-----0--|-----0----0-----0---------|
---0-----0----0-----0----|---0----0-----0------0----|
-------------------------|--------------------0-----|
-3-----2----0------------|-3-----2----0-------------|

Piano/Guitar 3 (it's hard to tell but sounds good either way)
Eb--5-----------|----5-----------5-----3-----2-----3---|
Bb---7---(x8)---|-----7---(x4)----7-----3-----3-----3--|
Gb-----7--------|------7-----------7-----4-----4-----4-|

Eb-7---7---5---5---2---------|--7---7---5---9---2---2---0---0---|
Bb--8---8---7---7---3-(x4)---|---8---8---7---7---3---3---2---2--|
Gb---7--7---7---7---4--------|----7---7---7---7---4---4---2---2-|

Guitar 2 (strum lightly)
-5--5--|--3--0--|--7--5--2--2--|--7--5--2--0--|
-7--7--|--3--2--|--8--7--3--3--|--8--7--3--2--|
-7--7--|--4--2--|--9--7--4--4--|--9--7--4--2--|
-7--7--|--5--2--|--9--7--4--4--|--9--7--4--2--|
-5--5--|--5--0--|--7--5--2--2--|--7--5--2--0--|
-5--5--|--3--0--|--7--5--2--2--|--7--5--2--0--|

Pre-Chorus (clean) (On the Ground)

[ Tab from: http://www.guitartabs.cc/tabs/f/further_seems_forever/on_legendary_tab.html ]
Guitar 1 (repeat 1  times)
Eb---2h3-5------2h3-5-----2h3-5-------2h3-5----|
Bb--3---------3---------3-----------3----------|
Gb-4-------4-2-------2-0---------0-2---------2-|

Piano/Guitar 3 (repeat 1  times)
Eb-2--2--2--2---0--0--0--0------------------0--0--0--0---|
Bb--3--3--3--3---2--2--2--2---3--3--3--3-----2--2--2--2--|
Gb---4--4--4--4---2--2--2--2---4--4--4--4-----2--2--2--2-|
Db------------------------------5--5--5--5---------------|

Guitar 2 (strum lightly, repeat 1  times)
-x--x--x--x-|
-3--2--x--2-|
-4--2--4--2-|
-4--2--5--2-|
-2--0--5--0-|
-------3----|

Pre-Chorus 2(Distortion)

Both Guitars Together (x1)
---2/3---3/5--------|
--------------------|
------------------3-|
-5-----4------2---3-|
-5-----4------2---1-|
-3-----2------0-----|


Chorus (Distortion)

Both Guitars Together (x4)
-----------------------|
-----------------------|
--7-7-7-7-----------3--|
--7-7-7-7--5--4--2--3--|
--5-5-5-5--5--4--2--1--|
-----------3--2--0-----|

Back to Intro/Verse (clean) but only play 1x instead of 2x

Solo (Distortion)


Eb--------14b15r14-----------14b15r14----------14b15r14----------14b15r14------|
Bb----15-----------15-----15-----------15----15---------15----15------------15-|
Gb-16------------------14-----------------12---------------14------------------|

Eb-------14b15r14-----------14b15r14-----17 (let ring)--|
Bb----15-----------15-----15----------15----------------|
Gb-16-------------------14------------------------------|

Guitar 2 (Play After Solo)
--------------------------------------------|
--------------------------------------------|
-4--6--7--6--7--9--10--12--11---------------|
-x--x--x--x--x--x---x---x----x--(let ring)--|
-2--4--5--4--5--7---8--10---9---------------|
--------------------------------------------|

After that, just play the Chorus 2x but at the end of the second time, 
the second guitar plays the "after solo" bit.  Then repeat the same thing
again.  

Thats it.  I hope you understood it, because it was hard to write out 
everything that was playing at the same time.  Any questions or
comments, email me at emo_kid3@hotmail.com
Comments