Further Seems Forever - New Years Project Acoustic Chords & Tabs

 

New Years Project Acoustic Chords & Tabs

Further Seems Forever Chords & Tabs

Version: 1 Type: Tab 0 ratings
1 star 2 stars 3 stars 4 stars 5 stars
comments

New Years Project Acoustic Tab

   
Further Seems Forever
New Year's Project - Acoustic version
Tabbed by: Lindsay Kennedy
email: testingthestrong@hotmail.com

Tuning: Eb Standard (Eb, Ab, Db, Gb, Bb, Eb)

Key: / = Slide up to
     x (covering all strings) briefly mute/pause all strings

Both guitar tabs correspond to each other unless mentioned.

This tab is not meant to be 100% accurate to what is played on the song (although
it is closer than most tabs I have seen); its a version designed for an acoustic
duo. If you have only one guitarist, play along with Guitar 1.

If you want to play the regular version, some of Guitar 1's parts are simply
picked instead.



Intro/Verse

Guitar 1
e|-x---|-x-----x-----x----0-2----3-----3-----3-----3-----5-----5-----5-----x-----|
B|-3---|-3-----3-----3----3-3----3-----3-----3-----3-----3-----3-----3-----3-----|
G|-0---|-0-----0-----0----0-2----0-----0-----0-----0-----2-----2-----2-----0-----|
D|-0---|-0-----0-----0----2-0----2-----2-----2-----2-----0-----0-----0-----0-----|
A|-2---|-3-----3-----3----3-x----2-----2-----2-----2-----x-----x-----x-----2-----|
E|-0-*-|-3-----3-----3----x-x----0-----0-----0-----0-----x-----x-----x-----0-----| x2

* = play this part only the first time through

Guitar 2
e|-------------------------0-----------------------0-----------------------0-----|
B|-------3-----3---------3---3---3-----3---------3---3---3-----3---------3---0---|
G|---------0-----0-----0-------0---0-----0-----0-------0---0-----0-----0-------0-|
D|-----------0-----0-----------------0-----0-----------------0-----0-------------|
A|-------------------5-----------------------5-----------------------5-----------|
E|-------------------------------------------------------------------------------| x2



Verse - "So much to say..." 

Guitar 1
e|-x-----x-----x-----x-----x-----x-----x-----x-----|
B|-3-----3-----3-----3-----3-----3-----3-----3-----|
G|-0-----2-----0-----2-----0-----2-----0-----2-----|
D|-2-----0-----0-----2-----2-----0-----0-----2-----|
A|-2-----0-----2-----0-----2-----0-----2-----0-----|
E|-0-----2-----3-----x-----0-----2-----3-----x-----| x2

Guitar 2
e|-------------------------------------------------|
B|-------------------------------------------------|
G|-------------------2-----2/4-0-2/4-0-2/4-0-2/4-0-|
D|-2-----4-----5-----------------------------------|
A|-------------------------------------------------|
E|-------------------------------------------------| x2
                                                                              


Verse - "Softer than ever before..."

Guitar 1
e|-x-----x-----x-----x------|
B|-3-----3-----3-----3------|
G|-0-----0-----0-----0------|
D|-0-----0-----0-----0------|
A|-3-----3-----3-----2------|
E|-3-----3-----3-----0------|

e|-x-----x-----x----0-2----3-----3-----3-----3-----5-----5-----5-----x-----|
B|-3-----3-----3----3-3----3-----3-----3-----3-----3-----3-----3-----3-----|
G|-0-----0-----0----0-2----0-----0-----0-----0-----2-----2-----2-----0-----|
D|-0-----0-----0----2-0----2-----2-----2-----2-----0-----0-----0-----0-----|
A|-3-----3-----3----3-x----2-----2-----2-----2-----x-----x-----x-----2-----|
E|-3-----3-----3----x-x----0-----0-----0-----0-----x-----x-----x-----0-----| x2

Guitar 2
e|-------------------0-----|
B|-3-----3---------3---3---|
G|---0-----0-----0-------0-|
D|-----0-----0-------------|
A|-------------5-----------|
E|-------------------------|

e|-------------------0-----------------------0-----------------------0-----|
B|-3-----3---------3---3---3-----3---------3---3---3-----3---------3---0---|
G|---0-----0-----0-------0---0-----0-----0-------0---0-----0-----0-------0-|
D|-----0-----0-----------------0-----0-----------------0-----0-------------|
A|-------------5-----------------------5-----------------------5-----------|
E|-------------------------------------------------------------------------| x2



Pre-Chorus

Guitar 1
e|-x-----x-----x-----x-----x-----x-----x-----x-----|
B|-3-----3-----3-----3-----3-----3-----3-----3-----|
G|-0-----2-----0-----2-----0-----2-----0-----2-----|
D|-2-----0-----0-----2-----2-----0-----0-----2-----|
A|-2-----0-----2-----0-----2-----0-----2-----0-----|
E|-0-----2-----3-----x-----0-----2-----3-----x-----|

e|-----------------------------------x-x-x-x-x-x-x-x-x---3-3-3-3-3-3-3-3-x-|
B|-----------------------------------0-0-0-0-x-0-0-0-0---3-3-3-3-3-3-3-3-x-|
G|-5-5-5-5-5-5-5-5-5-5-5-5-5-5-5-5---0-0-0-0-x-0-0-0-0---0-0-0-0-0-0-0-0-x-|
D|-5-5-5-5-5-5-5-5-5-5-5-5-5-5-5-5---2-2-2-2-x-2-2-2-2---2-2-2-2-2-2-2-2-x-|
A|-3-3-3-3-3-3-3-3-3-3-3-3-3-3-3-3---2-2-2-2-x-2-2-2-2---3-3-3-3-3-3-3-3-x-|
E|-----------------------------------0-0-0-0-x-0-0-0-0-------------------x-|

Guitar 2
e|-------------------------------------------------|
B|-------------------------------------------------|
G|-------------------2-----------------------------|
D|-2-----4-----5-----------2-----4-----5-----7-----|
A|-------------------------2-----4-----5-----7-----|
E|-------------------------0-----2-----3-----5-----|
[ Tab from: http://www.guitartabs.cc/tabs/f/further_seems_forever/new_years_project_acoustic_tab.html ]
e|-------------------------------------------x---------------------------x-|
B|-------------------------------------------x---------------------------x-|
G|-5-5-5-5-5-5-5-5-5-5-5-5-5-5-5-5---9-9-9-9-x-9-9-9-9---5-5-5-5-5-5-5-5-x-|
D|-5-5-5-5-5-5-5-5-5-5-5-5-5-5-5-5---9-9-9-9-x-9-9-9-9---3-3-3-3-3-3-3-3-x-|
A|-3-3-3-3-3-3-3-3-3-3-3-3-3-3-3-3---7-7-7-7-x-7-7-7-7---3-3-3-3-3-3-3-3-x-|
E|-----------------------------------0-0-0-0-x-0-0-0-0-------------------x-|



Chorus

Guitar 1
e|-3-3-3-3-3-3-3-3--3-3-3-3--3-3-3-3---3-3-3-3--3-3-3-3--3-3-3-3-3-3-3-3-|
B|-3-3-3-3-3-3-3-3--3-3-3-3--3-3-3-3---3-3-3-3--3-3-3-3--3-3-3-3-3-3-3-3-|
G|-0-0-0-0-0-0-0-0--0-0-0-0--0-0-0-0---0-0-0-0--2-2-2-2--0-0-0-0-0-0-0-0-|
D|-0-0-0-0-0-0-0-0--2-2-2-2--2-2-2-2---2-2-2-2--0-0-0-0--2-2-2-2-2-2-2-2-|
A|-2-2-2-2-2-2-2-2--2-2-2-2--3-3-3-3---2-2-2-2--x-x-x-x--3-3-3-3-3-3-3-3-|
E|-3-3-3-3-3-3-3-3--0-0-0-0--x-x-x-x---0-0-0-0--x-x-x-x--x-x-x-x-x-x-x-x-| x4
   v v ^ ^ v v ^ ^  v v ^ ^  v v ^ ^   v v ^ ^  v v ^ ^  v v ^ ^ v v ^ ^       

Guitar 2
e|-3-3-2-2-3-3-2-2--3-3-2-5--2-2-2-2-|-3-3-2-2--5-5-2-2--3-3-2-2-5-5-2-2-|
B|-3-3-3-3-3-3-3-3--3-3-3-3--3-3-3-3-|-3-3-3-3--3-3-3-3--3-3-3-3-3-3-3-3-|
G|-0-0-0-0-0-0-0-0--0-0-0-0--0-0-0-0-|-0-0-0-0--0-0-0-0--0-0-0-0-0-0-0-0-|
D|-----------------------------------|-----------------------------------|
A|-----------------------------------|-----------------------------------|
E|-----------------------------------|-----------------------------------| x3
   v v ^ ^ v v ^ ^  v v ^ v  v v ^ ^   v^v ^v^  v^v ^v^  v^v ^v^ v^v ^v^       

On fourth time through chorus play first half, then play this:
e|-------------------------------------14-12-------------14-12-------------|
B|-------------12h13-------------12h13-------------12h13-------------12h13-|
G|-12----12h14-------12----12h14-------------12h14-------------12h14-------|
D|----14----------------14-------------------------------------------------|
A|-------------------------------------------------------------------------|
E|-------------------------------------------------------------------------|



Verse2

Guitar 1
e|-x-----x-----x----0-2----3-----3-----3-----3-----5-----5-----5-----x-----|
B|-3-----3-----3----3-3----3-----3-----3-----3-----3-----3-----3-----3-----|
G|-0-----0-----0----0-2----0-----0-----0-----0-----2-----2-----2-----0-----|
D|-0-----0-----0----2-0----2-----2-----2-----2-----0-----0-----0-----0-----|
A|-3-----3-----3----3-x----2-----2-----2-----2-----x-----x-----x-----2-----|
E|-3-----3-----3----x-x----0-----0-----0-----0-----x-----x-----x-----0-----| x2

Guitar 2 - tab does not match Guitar 1
e|-----15-------15-------15-------17---------|-15-------15-------17-------15-------17---------|
B|15------15-------15-------15-------15------|----15-------15-------15-------15-------15------|
G|-----------12-------12-------12-------12---|-------12-------12-------12-------12-------12---|
D|-------------------------------------------|------------------------------------------------|
A|-----------------------------------------x2|----------------------------------------------x2|
E|-------------------------------------------|------------------------------------------------|

e|-15-------17-------15-------17-------15-------|
B|----15-------15-------15-------15-------15----|
G|-------12-------12-------12-------12-------12-|
D|----------------------------------------------|
A|----------------------------------------------|
E|----------------------------------------------|



Pre-Chorus

Guitar 1
e|-x-----x-----3-----5-----|
B|-3-----3-----3-----3-----|
G|-0-----2-----0-----2-----|
D|-2-----0-----0-----2-----|
A|-2-----0-----2-----0-----|
E|-0-----2-----3-----x-----|

e|-3-3-3-3--3-3-3-3--3-3-3-3-3-3-3-3-|
B|-3-3-3-3--3-3-3-3--3-3-3-3-3-3-3-3-|
G|-0-0-0-0--2-2-2-2--0-0-0-0-0-0-0-0-|
D|-2-2-2-2--0-0-0-0--2-2-2-2-2-2-2-2-|
A|-2-2-2-2--x-x-x-x--3-3-3-3-3-3-3-3-|
E|-0-0-0-0--x-x-x-x--x-x-x-x-x-x-x-x-|
   v v ^ ^  v v ^ ^  v v ^ ^ v v ^ ^   

Guitar 2
e|-------------------------|
B|-------------------------|
G|-------------------------|
D|-2-----4-----5-----7-----|
A|-2-----4-----5-----7-----|
E|-0-----2-----3-----5-----|

e|-3-3-2-2-3-3-2-2-|
B|-3-3-3-3-3-3-3-3-|
G|-0-0-0-0-0-0-0-0-|
D|-----------------|
A|-----------------|
E|-----------------|
   v v ^ ^ v v ^ ^ 



Last Chorus

Guitar 1
e|-3-3-3-3-3-3-3-3--3-3-3-3--3-3-3-3---3-3-3-3--3-3-3-3--3-3-3-3-3-3-3-3-|
B|-3-3-3-3-3-3-3-3--3-3-3-3--3-3-3-3---3-3-3-3--3-3-3-3--3-3-3-3-3-3-3-3-|
G|-0-0-0-0-0-0-0-0--0-0-0-0--0-0-0-0---0-0-0-0--2-2-2-2--0-0-0-0-0-0-0-0-|
D|-0-0-0-0-0-0-0-0--2-2-2-2--2-2-2-2---2-2-2-2--0-0-0-0--2-2-2-2-2-2-2-2-|
A|-2-2-2-2-2-2-2-2--2-2-2-2--3-3-3-3---2-2-2-2--x-x-x-x--3-3-3-3-3-3-3-3-|
E|-3-3-3-3-3-3-3-3--0-0-0-0--x-x-x-x---0-0-0-0--x-x-x-x--x-x-x-x-x-x-x-x-| x4
   v v ^ ^ v v ^ ^  v v ^ ^  v v ^ ^  v v ^ ^  v v ^ ^  v v ^ ^ v v ^ ^       

Guitar 2
e|-3-3-2-2-3-3-2-2--3-3-2-5--2-2-2-2-|-3-3-2-2--5-5-2-2--3-3-2-2-5-5-2-2-|
B|-3-3-3-3-3-3-3-3--3-3-3-3--3-3-3-3-|-3-3-3-3--3-3-3-3--3-3-3-3-3-3-3-3-|
G|-0-0-0-0-0-0-0-0--0-0-0-0--0-0-0-0-|-0-0-0-0--0-0-0-0--0-0-0-0-0-0-0-0-|
D|-----------------------------------|-----------------------------------|
A|-----------------------------------|-----------------------------------|
E|-----------------------------------|-----------------------------------| x4
   v v ^ ^ v v ^ ^  v v ^ v  v v ^ ^   v^v ^v^  v^v ^v^  v^v ^v^ v^v ^v^       


End

Guitar 1 - Let Guitar 2 play riff 4 times, then end on
e|-3-|
B|-3-|
G|-0-|
D|-0-|
A|-2-|
e|-3-|

Guitar 2
e|3-3-2-2--5-5-2-2--3-3-2-2-5-5-2-2-|
B|3-3-3-3--3-3-3-3--3-3-3-3-3-3-3-3-|
G|0-0-0-0--0-0-0-0--0-0-0-0-0-0-0-0-|
D|----------------------------------|
A|----------------------------------|
E|----------------------------------| x2
  v^v ^v^  v^v ^v^  v^v ^v^ v^v ^v^  

e|-3-|
B|-3-|
G|-0-|
D|---|
A|---|
E|---|
Comments