Further Seems Forever - Light Up Ahead Chords & Tabs

 

Light Up Ahead Chords & Tabs

Further Seems Forever Chords & Tabs

Version: 2 Type: Tab 0 ratings
1 star 2 stars 3 stars 4 stars 5 stars
comments

Light Up Ahead Tab

   
Artist: Further Seems Forever
Song: Light Up Ahead
Album: Hide Nothing

The song has a lot of riffs and it was really hard to hear them well...
I've tried a couple of things ...
and this is the way I play it

Guitar 1 - Lead Guitar

Intro - I've tried to do it different, But the only way I thought it looked
the same as the song is like this :

E|--------------------------------------------------------------------------------------------|
B|------4-------4--------4-------4-------4--------4-------4-------4---------4--------4--------|
G|--------3-------3--------3-------3-------3--------3-------3-------3---------3--------3------|
d|---0-------0--------1-------1-------1--------0-------1-------1--------3--------3--------3/0-|
A|--------------------------------------------------------------------------------------------|
D|--------------------------------------------------------------------------------------------|

E|-------------------------------------------------|
B|---4---------4------4-------4-------4-------4----|
G|-----3--------3-------3-------3-------3-------3--|
d|--------0-------0-------1-------1-------1--------|
A|-------------------------------------------------|
D|-------------------------------------------------|

Verse ( take this heart of darkness )

E|-----------------6----3--------------------------------------------------------------|
B|-----------------------------6----4----3-----3----4----6----4-----4----4----3----3---|
G|-----------5-------------------------------------------------------5----5----5----5--| 
( 2 x )
d|------5-------------------------------------5----5----5----5-------------------------|
A|---3----3----3----3----3----3----3---------------------------------------------------|
D|-------------------------------------------------------------------------------------|

Bridge: ( the times I feel like nothing )

E|---------------------10------------------------------------------10--------------------|
B|--------------------------8----8----9----9---------------------------8----8------------|
G|-----------------8----------8----8----8----8----------------8---------8----8--7-8-7-8--|
d|---10------10----------------------------------10------10------------------------------|
A|--------10-------------------------------------------10--------------------------------|
D|---------------------------------------------------------------------------------------|

E|------------------------10---------|
B|----------------------------8---8--|
G|---------------8---------8---8-----|
d|----10------10---------------------|
A|------------10---------------------|
D|-----------------------------------|


E|----66---10-10---88-----------|
B|----66---6---6----66----------|
G|----77---7---7----77----------|
d|------------------------------|
A|------------------------------|
D|------------------------------|

Pre-chorus: ( And all these bad dreams, I wake up to the light.. )

E|-----------------------------------------10--11--13--11-----------------------------------------------|
B|-----------------------------------------11--11--11--11-----------------------------------------------|
G|---88--10-10---8---10----8----------------------------88888888--10-10-10-10-10--88---12--12-----------|
d|---88--10--10-----8-----8----8-------------------------88888888--10-10-10-10-10--88---12--12----------|
A|---66---8---8----------------------------------------------66666666--8---8---8---8---8---66---10--10--|
D|------------------------------------------------------------------------------------------------------|
 ( the last part is a bit strange to play )
[ Tab from: http://www.guitartabs.cc/tabs/f/further_seems_forever/light_up_ahead_tab_ver_2.html ]
( Wake me up )                                                   |   ( the part where no 
is heard )
E|--------------------------------------------------------|-----------------------------|
B|-----------------8----11----8------------------------|-------8---------8--------------|
G|-----------8-----------------------10---8----10----|----------8---------8-------------|
d|------8------------------------------------------------|-----8---------8--------------|
A|---8----8----8----8-----8-----8-----8-----8-------|--6---------6----------------------|
D|--------------------------------------------------------|-----------------------------|

Chorus

E|--------------------------6-------------------------------------------6--------------------|
B|----------------6-----------6-----6----6-------------------6----------6----6---6----9-8-6--|

4 x
d|---------8-----------8------------------------8---------8--------8-------------------------|
A|---6--------6---------------------------------------6------6-------------------------------|
D|-------------------------------------------------------------------------------------------|

Guitar Two - Power chords

Take this heart of darkness...
E|-------------------------|
B|-------------------------|
G|--555555555--(-77-888-)--|
d|--555555555--(-77-888-)--|
A|--333333333--(-55-666-)--|
D|-------------------------|
( between the " ( ) " is kinda inprov. maybe they use it I don't know ...)

"I give it up..."
E|---------------------------------------------------|
B|---------------------------------------------------|
G|---------------------------------------------------|
d|---66666-(-5555-3333-)-----------------------------|
A|---66666-(-5555-3333-)-----------------------------|
D|---66666-(-5555-3333-)-----------------------------|

Bridge:

The times I feel like nothing...
E|--------------------------|
B|--------------------------|
G|--555--333----------------|
d|--555--333----------------|
A|--333--111----------------|
D|--------------------------|

You bring enough
E|---------------------------------------------------|
B|---------------------------------------------------|
G|---------------------------------------------------|
d|--666--111-----------------------------------------|
A|--666--111-----------------------------------------|
D|--666--111-----------------------------------------|

So I can live for something
E|---------------------------------------------|
B|---------------------------------------------|
G|--555--333-----------------------------------|
d|--555--333-----------------------------------|
A|--333--111-----------------------------------|
D|---------------------------------------------|

You lift me up
E|------------------------------|
B|------------------------------|
G|--------10-10--88-------------|
d|--666--10-10--88--------------|
A|--666--8---8---66-------------|
D|--666-------------------------|

Pre-chorus:

And all these bad dreams, I wake up to the light...
E|---------------------------------------------------|
B|---------------------------------------------------|
G|---------------55555--8888-------------------------|
d|---6666--8--55555--8888----------------------------|
A|---6666--6--33333--6666----------------------------|
D|--6666---------------------------------------------|

And when I can't see, I wake up to your eyes...
E|---------------------------------------------------|
B|---------------------------------------------------|
G|---------------------------------------------------|
d|--55555-66666--88888-------------------------------|
A|--55555-66666--88888-------------------------------|
D|-55555-66666--88888--------------------------------|

Wake me up
E|---|
B|---|
G|---|
d|-3-|
A|-3-|
D|-3-|  ( you must mute this )

Chorus:
There's a light up ahead (wake me up)
E|-----------------------------------------------|
B|-----------------------------------------------|
G|--------------------55-------------------------|
d|--33-1111111--55-55-6--------------------------| 4 x
A|--33-1111111--33-55-6--------------------------|
D|--33-1111111------55-6-------------------------|

After this do everything over for both guitars accept the second "wake me up" part
That should me cut for the guitars... and the chorus will be right after the pre-chorus

I know that it was very difficult to hear all the riffs.. and I know that my tab is not 100
% correct... but it's better than nothing...

PS : Sorry for the same tab this is the correct one...
Comments