Further Seems Forever - Just Until Sundown Chords & Tabs

 

Just Until Sundown Chords & Tabs

Further Seems Forever Chords & Tabs

Version: 2 Type: Tab 0 ratings
1 star 2 stars 3 stars 4 stars 5 stars
comments

Just Until Sundown Tab

Artist: Further Seems Forever
Song: Just Until Sundown
Album: The Moon Is Down (tooth and nail)
Tabbed by:  Kyle DeHoff (muddleheaded@hotvoice.com)

(Some parts aren't completely right, but it's a good place to start from.)

Intro: 
1st gtr. 
E|-----------------------------------| 
B|-----------------------------------| 
G|-----------------------------------| 
D|-----7----8-7-------------8--7-----| 
A|-------8-------8--6/5/6--------8---| 
E|---6-------------------------------| 

Drums come in, then 2nd guitar

2nd gtr. 
E|--------------------------------8-----8------8--7--3--8--7--5--3---8| 
B|-------------------------8----6----6--------------------------------| 
G|----------------------5---------------------------------------------| 
D|-----------7h8------------------------------------------------------| 
A|---6h8--------------------------------------------------------------| 
E|--------------------------------------------------------------------| 

Verse: 
1st gtr. 
E|--------------------------------------------------------------------| 
B|--------------------------------------------------------------------| 
G|--------------------------------------------------------------------| 
D|--------------------------------------------------------------------| 
A|--9-------2------6------2------6-----2-----6---2-----4--------------| 
E|--7-------0------4------0------4-----0-----4---0-----2--------------| 
[ Tab from: http://www.guitartabs.cc/tabs/f/further_seems_forever/just_until_sundown_tab_ver_2.html ]
2nd gtr. fills with this riff. 
E|------------------------------| 
B|------------------------------| 
G|------------------------------| 
D|----8-7------8-7-----8-7------| 
A|---------8--------8-------8---| 
E|------------------------------| 

Chorus: 
1st gtr. 
E|------------------------------| 
B|------------------------------| 
G|------------------------------| 
D|------------------------------| 
A|--9------2----4------6--------| 
E|--7------0----2------4--------| 

2nd gtr. plays the 1st gtr.'s intro part 
continue until "dosenīt mean that I wanted to fight..." 

Then both guitars return to the verse and then the chorus. 

(not sure about this part)
Bridge: 
1st gtr. 
E|-------------------------------------------------------------------| 
B|-------------------------------------------------------------------| 
G|-------------------------------------------------------------------| 
D|-------------------------------------------------------------------| 
A|---7-----9-----10-----------6-----7--8--9--8-----------------------| 
E|---5-----7-----8------------4-----5--6--7--6-----------------------| 

2nd gtr. 
E|-------------------------------------------------------------------| 
B|--10----12-----13-----------9-----10--11--12--11-------------------| 
G|--9-----11-----12-----------8-----9---10--11--10-------------------| 
D|--7-----9------10-----------6-----7---8---9---8--------------------| 
A|-------------------------------------------------------------------| 
E|-------------------------------------------------------------------| 

Repeat, then at "Just until sundown.." both return to the 
verse, and and then play chorus once.


If there are any questions, comments, what have you, email me at
muddleheaded@hotvoice.com
Comments