Further Seems Forever - I Am Chords & Tabs

 

I Am Chords & Tabs

Further Seems Forever Chords & Tabs

Version: 1 Type: Bass Tab 0 ratings
1 star 2 stars 3 stars 4 stars 5 stars
comments

I Am Bass Tab

Further Seems Forever- I Am
By:glssjwTx

There Are Parts That I Could Not label In This Song.

Tuning: Half Step Down ( Eb Ab Db Gb )

   Part 1
G|---------------------------------------------------------------------------|
D|---------------------------------------------------------------------------|
A|-3----1~---3-1-----3---1~---3-1--------------------------------------------|
E|--4~-----------3~---4~---------3~------------------------------------------|

G|---------------------------------------------------------------------------|
D|---------------------------------------------------------------------------|
A|-3----1~---3-1-----3---1~---3-1--------------------------------------------|
E|--4~-----------3~---4~---------3~------------------------------------------|



   Part 2
G|---------------------------------------------------------------------------|
D|-----------5~-----------------------5~-------------------------------------|
A|---------3~----------3~-----------3~---------------------------------------|
E|-44444444----44444444--3~/44444444----3-444444466666666--------------------|


  
   Part 3
G|---------------------------------------------------------------------------|
D|---------------------------------------------------------------------------|
A|-3----1~---3-1-----3---1~---3-1--------------------------------------------|
E|--4~-----------3~---4~---------3~------------------------------------------|

G|---------------------------------------------------------------------------|
D|--------------5~-----------------------------------------------------------|
A|-3----1~---3-1---3---1~---3-1----------------------------------------------|
E|--4~--------------4~---------3~--------------------------------------------|

[ Tab from: http://www.guitartabs.cc/tabs/f/further_seems_forever/i_am_btab.html ]
  Part 4                                            v ten's not one's and zero's
G|---------------------------------------------------------------------------|
D|-----------5~-----------------------5~-----------------/10101010101010-----|
A|---------3~----------3~-----------3~---------------------------------------|
E|-44444444----44444444--3~/44444444----3-444444466666666--------------------|



   Part 5
G|--------------------------------------------------------------------------------|
D|-1-1-111------------------------------------------------------------------------|
A|--------------111111------------66666666666666663333333333333333----------------|
E|--------111111------333333333333--------------------------------3333333333333333|

G|---------------------------------------------------------------------------|
D|-8888888888888888----8p7-555558p7---------------------------/55555555------|
A|-----------------6666---8--------88----555566668888/-----------------------|
E|-----------------------------------8888-------------33333333---------------|

G|---------------------------------------------------------------------------|
D|---------------------8p7-555558p7------------------------------------------|
A|---------555588886666---8--------88----555566668888/-----------------------|
E|-66668888--------------------------8888-------------3333333333333333-------|

G|---------------------------------------------------------------------------|
D|---------------------------------------------------------------------------|
A|---------------------------------------------------------------------------|
E|-7777777777777777----------------------------------------------------------|


  Part 6
G|---------------------------------------------------------------------------|
D|---------------------------------------------------------------------------|
A|-3----1~---3-1-----3---1~---3-1--------------------------------------------|
E|--4x-----------3~---4~---------3~------------------------------------------|

G|---------------------------------------------------------------------------|
D|--------------5~-----------------------------------------/88888888/--------|
A|-3----1~---3-1---3---1~---3-1--------------------66666666------------------|
E|--4~--------------4~---------3~--4444444444444444--------------------------|

Enjoy!
Comments