Further Seems Forever - Aurora Borealis Chords & Tabs

 

Aurora Borealis Chords & Tabs

Further Seems Forever Chords & Tabs

Version: 1 Type: Tab 0 ratings
1 star 2 stars 3 stars 4 stars 5 stars
comments

Aurora Borealis Tab

Tabbed by: BenG
Artist: furtherSEEMSforever
Song Title: Aurora Borealis (in long form)
Album: how to start a fire

Tuning: Drop D

The Intro is played during the entire song. However, a recording of the 
Intro itslef gets slowed down and overlaps the Verses as the track 
progresses. So during this point in the song, just keep playing the Intro 
guitar. I have shown when and where to play the second guitar.

      h - hammer on 
      p - pull off 
      b - bend string up
      r - release bend
      / - slide up
      \ - slide down
      v - vibrato (sometimes written as ~)
      t - right hand tap
      x - play 'note' with heavy damping


Intro: 
e|------------------------------------------------------------------------|
B|------------------------------------------------------------------------|
G|------------------------------------------------------------------------|
D|--11-----11--------11-----11--------10-----10---8p6---------------------|
A|-----8--------8-------8--------8-------6-------------6------------------|
D|---8---8--8---------8---8--8---------6---6--6---------6-----------------|

e|------------------------------------------------------------------------|
B|------------------------------------------------------------------------|
G|----------------------------------------6(hold)-------------------------|
D|---8------8---------8------8----------6(hold)---6-----------------------|
A|-----4--------4-------4--------4----4(hold)------4----------------------|
D|---4---4--4---------4---4--4------3(hold)-------------------------------|

e|------------------------------------------------------------------------|
B|------------------------------------------------------------------------|
G|---3------3---------3------3---------3------3---------3------3----------|
D|--------------1----------------1----------------1----------------1------|
A|-----1----------------1----------------1----------------1---------------|
D|---1---1--1---------1---1--1---------1---1--1---------1---1--1----------|

e|---9\1*-----------------------------------------------------------------|
B|---2------2---------2------2---------1------1---------1(hold)-----------|
G|--------------1----------------1----------------1-----------------------|
D|------------------------------------------------------------------------|
A|-----1----------------1----------------1--------------------------------|
D|---1---1--1---------1---1--1---------1---1--1---------1(hold)-----------|
*In the background, you will hear a second guitar make a fingerslide (you 
will hear this fingerslide slowed down throughout the whole song)

1st VERSE:
 (...Oh................................my.................................)
e|------------------------------------------------------------------------|
B|------------------------------------------------------------------------|
G|------------------------------------------------------------------------|
D|--11-----11--------11-----11--------10-----10---8p6---------------------|
A|-----8--------8-------8--------8-------6-------------6------------------|
D|---8---8--8---------8---8--8---------6---6--6---------6-----------------|
[ Tab from: http://www.guitartabs.cc/tabs/f/further_seems_forever/aurora_borealis_tab.html ]
 (...God............................I've been wating......................)
e|------------------------------------------------------------------------|
B|------------------------------------------------------------------------|
G|----------------------------------------6(hold)-------------------------|
D|---8------8---------8------8----------6(hold)---6-----------------------|
A|-----4--------4-------4--------4----4(hold)------4----------------------|
D|---4---4--4---------4---4--4------3(hold)-------------------------------|

 (...for..............you..............all..............of.....my.........)
e|------------------------------------------------------------------------|
B|------------------------------------------------------6------4----------|
G|---3------3---------5------5---------6------6---------------------------|
D|--------------1----------------3----------------4-----------------------|
A|-----1----------------3----------------4----------------6------4--------|
D|---1---1--1---------3---3--3---------4---4--4---------6---6--4---4------|
 
 (...life.................................................................)
e|------------------------------------------------------------------------|
B|---2------2---------2------2---------1------1---------1(hold)-----------|
G|--------------1----------------1----------------1-----------------------|
D|------------------------------------------------------------------------|
A|-----1----------------1----------------1------------------------1--3----|
D|---1---1--1---------1---1--1---------1---1--1---------1(hold)-----------|


2nd GUITAR: ONLY PLAY SECOND GUITAR DURING THE 2nd VERSE
2nd VERSE: HOLD these first four cords as long as possible

(  The trees are tired from breathing...sharks keep moving never stopping)  
e|------------------------------------------------------------------------|
B|------------------------------------------------------------------------|
G|---------------------------------------------------------6--------------|
D|--11---------------------10-----------8------------------6--------------|
A|---8----------------------6-----------4------------------4--------------|
D|---8----------------------6-----------4------------------3--------------|

 (..sharks keep...moving....on............................................) 
e|------------------------------------------------------------------------|
B|--------------------------6--6----2----1--------------------------------|
G|--12--X--11--X--10--X--8------------------------------------------------|
D|--12--X--11--X--10--X--8------------------------------------------------|
A|--12--X--11--X--10--X--8--6--4----1----1--------------------------------|
D|--12--X--11--X--10--X--8--6--4----1----1--------------------------------|

Play both the Intro and the 2nd guitar for the 3rd Verse ("Cut out my eyes 
to spite my heart...") After he sings ("Assignments pile up") they will 
repeat the 3rd Verse again. So play as you did in the 2nd Verse with both 
guitars


Lyrics:
Oh my God I've been waiting for you all of my life the trees are tired 
from breathing sharks keep moving never stopping sharks keep moving on cut 
out my eyes to spite my heart wish for sleep but never stopping assignments 
pile up. Watch out baby going way to fast without eyes in the back of your 
never know where you came from please let me crash now break my body split 
myself in two split my self into you.
Comments