Furtado Nelly - Turn Off The Lights Chords & Tabs

 

Turn Off The Lights Chords & Tabs

Furtado Nelly Chords & Tabs

Version: 1 Type: Tab 0 ratings
1 star 2 stars 3 stars 4 stars 5 stars
comments

Turn Off The Lights Tab

Nelly Furtado
Turn Off the Lights
     
      This song is really awsome to play and I was fortunate enough not only to get the vese and 
chorus down, but also a 100% correct solo!!  enjoy

Intro/Verse

E--0-----3-----0        Just strum this through-out the entire vese and in the intro.
B--0-----0-----3
G--0-----0-----2
D--2-----0-----0
A--2-----2-----0
E--0-----3-----0


Bridge 

E--2        This is strummed when "I'm searching.." comes into place
B--3          listen carefully to get it right.
G--2
D--0
A--x
E--x


Solo
[ Tab from: http://www.guitartabs.cc/tabs/f/furtado_nelly/turn_off_the_lights_tab.html ]
E---------------------------------------------------
B-------------------------------------------0/////5-
G--2-2-2-4-2-0-------------------------0-2-3--------
D---------------2--0-2-0--------------2-------------
A-------------------------2-0---0-2-0---------------
E-----------------------------3---------------------

E--0-0-0-----0-0-0----------------------------------
B--------3-0-3-3-3-0---------------------0----------
G--------------------2-2-0-2-2-0-2-2-0-2---2-0------
D----------------------------------------------2-2--
A---------------------------------------------------
E---------------------------------------------------

E----------------------------------------------------------
B----------------------------------------------(5-8-10-12)-
G-----------0--------------------2-0--0--2-0--0------------
D--0-2-0-2----2-0-2-0---0----------2--2----2--2------------
A-------------------------2---0----------------------------
E----------------------------------------------------------

ok So thats basically it....hope you like it and if there is a mistake..email me so i can correct it!
   
/ = slide up
( ) = quiet playing


ENJOY!!!
Comments