Funkadelic - This Broken Heart Chords & Tabs

 

Funkadelic Chords & Tabs

Version: 1 Type: Bass Tab 0 ratings
1 star 2 stars 3 stars 4 stars 5 stars
comments

This Broken Heart Bass Tab

This Broken Heart (from the album "Cosmic Slop") Bass Tab by Funkadelic
tabbed by Neho II (pasha bely)
Intro (0:00)
G-|-----------------------------------|
D-|-----------------------------------|
A-|-----------------------------------|
E-|--0---2---4--------0---2---4-------|
                               Are you
  Verse (0:12)
G|-----------------------------------|-----------------------------------|
D|-----------------------------------|-----------------------------------|
A|-----------------------------------|-----------------------------------|
E|--4---8---9--------13-11-8---------|--4---8---9--------13-11-8---------|
   mad,    at               me,       darling?          are you
G|-----------------------------------|-----------------------------------|
D|-----------------------------------|-----------------------------------|
A|-----------------------------------|-----------------------------------|
E|--4---8---9--------13-11-8---------|--4---8---9--------13-11-8---------|
   sorry                     that we,   we, we met       have you 
G|-----------------------------------|-----------------------------------|
D|-----------------------------------|-----------------------------------|
A|-----------------------------------|-----------------------------------|
E|--4---8---9--------13-11-8---------|--4---8---9--------13-11-8---------|
   learned to love                   another              has he 
G|-----------------------------------|-----------------------------------|
D|-----------------------------------|-----------------------------------|
A|-----------------------------------|-----------------------------------|
E|--4---8---9--------13-11-8---------|--4---8---9--------13-11-8---------|
   told    you          to fo-          fo-orget             but no
 Chorus (1:00)
G|-----------------------------------|-----------------------------------|
D|-----------------------------------|-----------------------------------|
A|-----------------------------------|-----------------------------------|
E|--4---8---9--------13-11-8---------|--4---8---9--------13-11-8---------|
   other                           heart can love you    like this
G|-----------------------------------|
D|-----------------------------------|
A|-----------------------------------|
E|--4---8---13----------------4------|
   broken                  of mine
Solo background
G|-------------------------------------------------|
D|-------------------------------------------------|
A|-------------------------------------------------|
E|--4-----7-----11-----------4-----7-----11--------|
Guitar solo
e|------------------------|------------------------|
B|------------------------|------------------------|
G|------------------------|------------------------|
D|------------------------|------------------------|
A|------------------------|------------------------|
E|--4--6--7--11--9-7-6-4--|--4--6--7--11--9-7-6-4--|
Spoken part as verse, then play chorus one more time, then solo and improvize the outro. That's it.
any corrections are welcomed. my email - yoprst@tut.by
[ Tab from: http://www.guitartabs.cc/tabs/f/funkadelic/this_broken_heart_btab.html ]
Comments