Funkadelic - Super Stupid Chords & Tabs

 

Funkadelic Chords & Tabs

Version: 1 Type: Tab 0 ratings
1 star 2 stars 3 stars 4 stars 5 stars
comments

Super Stupid Tab

Super Stupid-Funkadelic-Maggot Brain


Intro:
     1	  1   1	      1                       1
|---------------------------------------------------------|
|--15b--15b-15b-----15b-15-12-15-12---------15b-15-12-15--|
|-----------------------------------14-12-----------------|
|---------------------------------------------------------|
|---------------------------------------------------------|
|---------------------------------------------------------|
	
	start slowing down..................
|---------------------------------------------------------|
|--12----12-----------------------------------------------|
|-----14----14-12-14-12----12-----------------------------|
|-----------------------14----14-12-14-12----12-----------|
|-----------------------------------------14----14-12-----|
|---------------------------------------------------------|

	                1/2        1/2
|---------------------------------------------------------|
|---------------------------------------------------------|
|---------------------------------------------------------|
|---------------------------------------------------------|
|--11~-----------------11br-------11br~\------------------|
|---------------------------------------------------------|
[ Tab from: http://www.guitartabs.cc/tabs/f/funkadelic/super_stupid_tab.html ]
Main Riff:
	 1 	1	           1	  1          (3 1/2x)
|-------------------x-x-----------------------------------|
|-------------------x-x-----------------------------------|
|-------------------x-x-----------------------------------|
|-------------------x-x-----------------------------------|
|--7-5--------------x-x------7-5--------------------------|
|------7-5br-0-3b-0-x-x-5h7------7-5br-0-3b-0~------------|


     1
|---------------------------------------------------------|
|---------------------------------------------------------|
|--14brp12-14-12-14-12------------------------------------|
|----------------------14-14~\----------------------------|
|---------------------------------------------------------|
|---------------------------------------------------------|



Verse:

                        (4x)
|----------------------------|
|----------------------------|
|--7/9-x-9-9----6/7-x-7-7----|
|--7/9-x-9-9----6/7-x-7-7----|
|--5/7-x-7-7----4/5-x-7-7----|
|----------------------------|After last time end on e power chord and let ring.


Chorus:



|------------x---------------------------------------x--|
|------------x---------------------------------------x--|
|--7/9-x-9-9-x--------------6/7-x-7-7\/\/--7/9-x-9-9-x--|
|--7/9-x-9-9-x-5-5----------6/7-x-7-7\/\/--7/9-x-9-9-x--|
|--5/7-x-7-7-x-----7-5------4/5-x-5-5\/\/--5/7-x-7-7-x--|
|------------x---------5-3~--------------------------x--|

	(2x)
|---------------------------|
|---------------------------|
|----------------6/7-x-7-7--|
|--5-5---5-7-5~--6/7-x-7-7--|
|------7---------4/5-x-5-5--|
|---------------------------|


last time end with repeated:
|--------------|
|--------------|
|--6/7-x-7-7/--|
|--6/7-x-7-7/--|
|--4/5-x-5-5/--|
|--------------|









Solo 1 is on e minor pentatonic with guitar 2 and bass playing the verse.

Repeat main riff 4x.

Solo 2 is also on e minor but guitar 2 and bass play the main riff.



Comments