Funkadelic - Super Stupid Chords & Tabs

 

Funkadelic Chords & Tabs

Version: 1 Type: Bass Tab 0 ratings
1 star 2 stars 3 stars 4 stars 5 stars
comments

Super Stupid Bass Tab

Super Stupid-Funkadelic-Maggot Brain

Intro:

|-----------------|
|-----------------|
|-----------------|
|--3----2--1--0~--|

Main Riff:
	                                (4x)
|------------------------------------------|
|------------------------------------------|
|--7-5---------------------7-5-------------|
|------7-5~-0-3b-0-x-x-5-7-----7-5~-0-3b-0-|

[ Tab from: http://www.guitartabs.cc/tabs/f/funkadelic/super_stupid_btab.html ]
Verse:
	              (4x)
|------------------------|
|------------------------|
|--5h7-x-7-7--4h5-x-5-5--|
|------------------------|


Chorus:

|---------------------------------------------------------|
|---------------5-------------------------------------5-5-|
|--5h7-x-7-7-x-x--7-5------4h5-x-5-5/\/\--5h7-x-7-7-x-----|
|---------------------5-3---------------------------------|
	         (2x)
|-------------------|
|--5-7-5------------|
|--------4h5-x-5-5--|
|-------------------|



Guitar solo 1: improvise on the verse. 

Main riff 4x.

Guitar solo 2: improvise on the main riff.
Comments