Funkadelic - Mommy Whats A Funkadelic Chords & Tabs

 

Funkadelic Chords & Tabs

Version: 1 Type: Bass Tab 0 ratings
1 star 2 stars 3 stars 4 stars 5 stars
comments

Mommy Whats A Funkadelic Bass Tab

Mommy, What's A Funkadelic - Funkadelic

Tabbed by Elmo
Corrected by Achilles (blue_sincere@hotmail.com)

Main part in E min
G|---------------------------------------------------------------|
D|-----------------------5-------------------------------5-------|
A|---5----5--7------5--7----7------5----5--7------------5---7----|
E|-7----7---------7--------------7----7------0-3--03567----------|
[ Tab from: http://www.guitartabs.cc/tabs/f/funkadelic/mommy_whats_a_funkadelic_btab.html ]
And then there are some funkie variations like:
G|------------------------------------------------------------------------|
D|------------------------------5---------------------------------5-------|
A|---5----5--7------------5----5-7--7-5------5----5--7-----------5---7----|
E|-7----7------5-0-3----7----7-------7-----7----7------0-3--03567---------|

A lot goes as long as you keep the E on the 1 (one) every bar.


Comments