Funkadelic - Maggot Brain Chords & Tabs

 

Funkadelic Chords & Tabs

Version: 1 Type: Bass Tab 0 ratings
1 star 2 stars 3 stars 4 stars 5 stars
comments

Maggot Brain Bass Tab

Here its the infamous bass line to eddies masterpiece

Maggot Brain - Funkadelic 
Bass Tab

      Q     Q     Q     Q     Q     Q     
G||--------------------12----------------|
D||--------------14----------14----------|
A||--------14----------------------14----|
E||--12----------------------------------|


   Q     Q     Q     Q     Q     Q        Q     Q     Q     Q     Q     Q     
------------------12----------------|--------------------11----------------|
------------14----------14----------|--------------12----------12----------|
------14----------------------14----|--------12----------------------12----|
12----------------------------------|--10----------------------------------|

[ Tab from: http://www.guitartabs.cc/tabs/f/funkadelic/maggot_brain_btab.html ]
   Q     Q     Q     Q     Q     Q       Q    Q    Q    Q    Q    Q     
--------------------11----------------|-----------------7--------------|
--------------12----------12----------|------------9---------9---------|
--------12----------------------12----|-------9-------------------9----|
--10----------------------------------|--7-----------------------------|


  Q    Q    Q    Q    Q    Q       Q     Q     Q    Q     Q     Q     
-----------------7--------------|-------------------9----------------|
------------9---------9---------|-------------10---------10----------|
-------9-------------------9----|-------10---------------------10----|
--7-----------------------------|--8---------------------------------|


  Q     Q     Q    Q     Q     Q    34x         
-------------------9-----------------||
-------------10---------10----------*||
-------10---------------------10----*||
--8----------------------------------||

Comments