Funkadelic - Hit It And Quit It Chords & Tabs

 

Funkadelic Chords & Tabs

Version: 1 Type: Bass Tab 0 ratings
1 star 2 stars 3 stars 4 stars 5 stars
comments

Hit It And Quit It Bass Tab

   
-------------------------------------------------------------------------------
			     Hit it and Quit It - Funkadelic
-------------------------------------------------------------------------------

Tabbed By : Chris Girard
e-mail: cgirardmd@gmail.com
Tuning: Something like a quarter step down from standard A=440 on the Maggot 
Brain album recording, but essentially tuned standard.

This is the main riff of the song.

G|----------------------------------------------------------------|
D|--------2-5--------2-------------------2-5----7-----------------|
A|---2h4-------2h4p2----------------2h4-------7---10h7------------|
E|----------------------0--3--0------------------------0--3--0----|
[ Tab from: http://www.guitartabs.cc/tabs/f/funkadelic/hit_it_and_quit_it_btab.html ]
G|-------------------------------------------------|
D|-----2-5------2-5-------2-5--------2-------------|
A|-2h4------2h4------2h4------2h4p2----------------|
E|--------------------------------------0--3--0----|

There are also two short "bridge" sections.  After each chord section, play
half of the main riff, leaving off the repeated ascending bit at the end.
In other words, just play the first two "licks" of the main riff.

Chorus A: 
A - B - G -> half the verse

Chorus B:
B - D - A -> half the verse

The structure of the song is as follows:

Main riff x 2 quietly
Main riff x 3 loudly
Chorus A
Chorus B
Chorus B
Organ Solo (first two licks of the main riff repeated underneath)
Chorus A
Chorus A
Main Riff x 1 including the repeated ascending bit
Guitar Solo Outro (first two licks of the main riff repeated)



| /  slide up
| \  slide down
| h  hammer-on
| p  pull-off
| ~  vibrato
| +  harmonic
| x  Mute note
=============================================================================
Comments