Funkadelic - Cholly Funk Gettin Ready To Roll Chords & Tabs

 

Funkadelic Chords & Tabs

Version: 1 Type: Bass Tab 0 ratings
1 star 2 stars 3 stars 4 stars 5 stars
comments

Cholly Funk Gettin Ready To Roll Bass Tab

Band: Funkadelic
Song: Cholly (Funk gettin' ready to roll!)
Tabbed by: FLIP


s- slap
p- pop

Main bass line(you must add some simply variations during the song):
G-----------5-5---------------------------------------------|
D----7--x--------x---7--------------------------------------|
A------------------------------x12/-------------------------|
E-5------5--------5-------x12/------x12/--------------------|
[ Tab from: http://www.guitartabs.cc/tabs/f/funkadelic/cholly_funk_gettin_ready_to_roll_btab.html ]
Another bass line:
G---------5---5----------------------|
D-----5-7---7---7--------------------|
A-5/7-------------7--3/5/------------|play this a bunch of times and:
E------------------------------------|

G--------5-7-9--5--7--------|
D----5-7-------------7-5~~--|
A-5/7-----------------------|
E---------------------------|

And now the most funky part:
G-----------------------------------------|
D-0-7-9--7------0-7-0-9----------7/9------|
A----------9-------------0-4-5-------7----|
E------------7----------------------------|
add some variations to this at the end( it's easy)

OK..that's it.......play it FUNKYYY!!!...and ENJOY:)
Comments