Funeral For A Friend - Waking Up Chords & Tabs

 

Waking Up Chords & Tabs

Funeral For A Friend Chords & Tabs

Version: 2 Type: Tab 0 ratings
1 star 2 stars 3 stars 4 stars 5 stars
comments

Waking Up Tab

Hey, my name is max stone and i cant find an accurate tab for this anywhere so i
thought id do it myself, the song is in Db, Please rate and tell me what you think at
maxstone666@aol.com

Intro
(Lead and rhythm put together)
e|--------------------------------------------|-------|
b|---------------------15-------15------------|-end---|
g|---9-------9-----------14~------14~---------|-------|
d|-8--10~--8--10~---12-------12-------x3.5----|--12~--|
a|-8-------8--------12-------12---------------|--12~--|
D|-8-------8--------12-------12---------------|--12~--|

Verse
(Lead)
e|--------------------------------------------------------------|
b|--------------------------------------------------------------|
g|-10101210--10101410--10141012--101014/15--1212109--14121012---|  x4
d|--------------------------------------------------------------|
a|--------------------------------------------------------------|
d|--------------------------------------------------------------|

Pre Chorus
(Lead only)
e|-----------------------------------------|
b|-----------------------------------------|
g|-17171717--15151515--14141414--121212----|
d|--x-x-x-x---x-x-x-x---x-x-x-x---x-x-x----|
a|-15151515--13131313--12121212--101010----|
d|-----------------------------------------|


Chorus
(Lead)
e|-----10-------__------------10--|----------------------|
b|-------------|x2|---------------|----------------------|
g|-9-10---9-9h12-9h10-9---9-10----|----------------------|
d|--------------------------------|---1212121212121212---| 
a|--(            x4            )--|---1212121212121212---|
d|--------------------------------|---1212121212121212---|


Verse
(Lead)
e|-------------------------------------------------------------------|
b|-------------------------------------------------------------------|
g|-10101210---10101410---10141012---101014/15---1212109---14121012---|  x4
d|-------------------------------------------------------------------|
a|-------------------------------------------------------------------|
d|-------------------------------------------------------------------|

[ Tab from: http://www.guitartabs.cc/tabs/f/funeral_for_a_friend/waking_up_tab_ver_2.html ]
Pre Chorus
(Both)
e|-----------------------------------------|
b|-----------------------------------------|
g|-17171717--15151515--14141414--121212----|
d|--x-x-x-x---x-x-x-x---x-x-x-x---x-x-x----|
a|-15151515--13131313--12121212--101010----|
d|-----------------------------------------|



Chorus
(Lead)
e|-----10-------__------------10--|
b|-------------|x2|---------------|
g|-9-10---9-9h12-9h10-9---9-10----|
d|--------------------------------|
a|--(             x4           )--|
d|--------------------------------|


Interlude
(Both)
e|----------------------------------------|----------------------|
b|----------------------------------------|----------------------|
g|----------------------------------------|----------------------|
d|-12------8------12-------8------12------|-8~--12~--8~--12~-----|
a|-12-(x29)8-(x12)12-(x12)-8-(x12)12-(x12)|-8~--12~--8~--12~--x4-|
d|-12------8------12-------8------12------|-8~--12~--8~--12~-----|

Guitar 1
(clean)
e|-------------------------------------------------------------|
b|-------------------------------------------------------------|
g|-10------121212121212--101010121212-9--9--9--10-10-10--------|
d|--8-(x8)-101010101010--101010101010-x--x--x--x--x--x---------| x4
a|--8------101010121212--121212101010-12-12-12-12-12-12--------|
d|-------------------------------------------------------------|

Guitar 2 (start after that ^ x2)
(Clean)
e|-----------------------------------|
b|-----------------------------------|
g|-10-9---10-9---10-9----9-10-12-----|
d|-----10-----10-----10--------------| x6
a|-----------------------------------|
d|-----------------------------------|

Guitar 1
e|--------------------------------------|
b|--------------------------------------|
g|-10-9------10-9------10-9------9-10---|
d|-----10-10-----10-10-----10-10--------|x4
a|--------------------------------------|
d|--------------------------------------|

Outro
(Both)
e|-----------------------------------|
b|-----------------------------------|
g|-----------------------------------|
d|-0-0-0-0-0-0-0-0-0-0-0-0-0---------|
a|-0-0-0-0-0-0-0-0-0-0-0-0-0---------|
d|-0-0-0-0-0-0-0-0-0-0-0-0-0---------|

thanks, im pretty sure thats close, please rate and email any corrections to
maxstone666@aol.com cheers
Comments