Funeral For A Friend - This Years Most Open Heartbreak Chords & Tabs

 

This Years Most Open Heartbreak Chords & Tabs

Funeral For A Friend Chords & Tabs

Version: 3 Type: Bass Tab 0 ratings
1 star 2 stars 3 stars 4 stars 5 stars
comments

This Years Most Open Heartbreak Bass Tab

   
Intro (Bass comes in at 00:13)
Gb|----------|
Db|----------|
Ab|----------| x2
Db|-0~-------|

Gb|----------|
Db|----------|
Ab|-3~-------| x1
Db|----------|


Verse
Gb|-------------------------------------------------------------|
Db|-------------------------------------------------3---3h5-----|
Ab|---------------------------------------------1h3---3-----3h5-| x4
Db|-1-0-0-0-1-0-1-0-/2\-0-0-0-2-2--0-0-2-2--0-0-----------------|


Chorus 
Gb|-------------------------------------------------|
Db|-------------------------------------------------|
Ab|-------------------------------------------------| x2
Db|-8--8-8-8--8-8--8--8--10--10-10-10--10-10--10-10-|


Verse
Gb|-------------------------------------------------------------|
Db|-------------------------------------------------3---3h5-----|
Ab|---------------------------------------------1h3---3-----3h5-| x4
Db|-1-0-0-0-1-0-1-0-/2\-0-0-0-2-2--0-0-2-2--0-0-----------------|

[ Tab from: http://www.guitartabs.cc/tabs/f/funeral_for_a_friend/this_years_most_open_heartbreak_btab_ver_3.html ]
Chorus 
Gb|-------------------------------------------------|
Db|-------------------------------------------------|
Ab|-------------------------------------------------| x2
Db|-8--8-8-8--8-8--8--8--10--10-10-10--10-10--10-10-|

Gb|--------------------------------------------------|
Db|--------------------------------------------------| 
Ab|--------------------------------------------------| x2
Db|-888888888888888810101010101010101010101010101010-|


Interlude 
Gb|----------------------------------------|
Db|----------------------------------------|
Ab|----------------------------------------| x4
Db|-0-0--0-0--0-0--0-0--0-0--0-0--0-0--0-0-|


Chorus 
Gb|-------------------------------------------------|
Db|-------------------------------------------------|
Ab|-------------------------------------------------| x2
Db|-8--8-8-8--8-8--8--8--10--10-10-10--10-10--10-10-|

Gb|--------------------------------------------------|
Db|--------------------------------------------------| 
Ab|--------------------------------------------------| x2
Db|-888888888888888810101010101010101010101010101010-|


Outro
Gb|--------------------------------|
Db|--------------------------------| 
Ab|--------------------------------| x1
Db|-1-0-0-0-1-0-1-0-/2\-0-0-0-2--2-|
Comments