Funeral For A Friend - This Letter Chords & Tabs

 

This Letter Chords & Tabs

Funeral For A Friend Chords & Tabs

Version: 4 Type: Tab 0 ratings
1 star 2 stars 3 stars 4 stars 5 stars
comments

This Letter Tab

   
Funeral For A Friend - This Letter
Tabbed by Tom Martin

Standard Tuning - E B G D A E (High to Low)

I'm pretty sure its just about 100% correct, so have fun and tell me what you think!

---------------------------------------------------------------------------------------

Intro - (0:00 - 0:22)

|------------------------------------------------------------------------|
|------7----7---------7----7---------7----7---------7--------------------|
|---/7---/6---7\6-6/7---/6---7\6-6/7---/6---7\6-6/7---/6-----------------|
|------------------------------------------------------------------------|
|------------------------------------------------------------------------|
|------------------------------------------------------------------------|

---------------------------------------------------------------------------------------

1st Verse - (0:22 - 0:43)

Guitar 1
|------------------------------------------------------------------------|
|------7----7---------7----7---------7----7---------7--------------------|
|---/7---/6---7\6-6/7---/6---7\6-6/7---/6---7\6-6/7---/6-----------------|
|------------------------------------------------------------------------|
|------------------------------------------------------------------------|
|------------------------------------------------------------------------|

Guitar 2
|---7-5-----5------------------------------------------------------------|
|-----------7------------------------------------------------------------|
|-------6/7----7-6-------------------------------------------------------|
|------------------7-----------------------------------------------------| x4
|------------------------------------------------------------------------|
|------------------------------------------------------------------------|

---------------------------------------------------------------------------------------

Chorus - (0:43 - 1:04)
[ Tab from: http://www.guitartabs.cc/tabs/f/funeral_for_a_friend/this_letter_tab_ver_4.html ]
|------------------------------------------------------------------------|
|----------3-2--------------2h3p2--------------3p2----3-2---3-2----------|
|------2-------2--------2---------2--------2----------2------------------|
|----4---4------------4---4---------4----4---4------4-4---4--------------| x2
|--2----------------0----------------------------------------------------|
|--------------------------------------3---------------------------------|
                                                      ^2nd time hold note

---------------------------------------------------------------------------------------

2nd Verse - (1:04 - 1:25)

Same guitar

---------------------------------------------------------------------------------------

Chorus - (1:25 - 2:06)

Same guitar (x2)

---------------------------------------------------------------------------------------

3rd Verse - (2:06 - 2:27)

Same guitar

---------------------------------------------------------------------------------------

Bridge - (2:27 - 2:52)

|-----------3-3-3-3-3-2----------3-3-3-3-3-------------------------------|
|-----------2-2-2-2-2-2----------3-3-3-3-3-------------------------------|
|---4-4-4-4-4-4-4-4-4-4----------3-3-3-3-3-------------------------------|
|---4-4-4-4-4-4-4-4-4-4--5-5-5-5-5-5-5-5-5-------------------------------| x3
|---2-2-2-2-2-2-2-2-2-2--5-5-5-5-5-5-5-5-5-------------------------------|
|------------------------3-3-3-3-3-3-3-3-3-------------------------------|

then:

|-----------3-3-3-3-3-2----------3-3-3-3-3---------3-3-3-3-3-------------|
|-----------2-2-2-2-2-2----------3-3-3-3-3---------3-3-3-3-3-------------|
|---4-4-4-4-4-4-4-4-4-4----------3-3-3-3-3---------3-3-3-3-3-------------|
|---4-4-4-4-4-4-4-4-4-4--5-5-5-5-5-5-5-5-5-5-5-5-5-5-5-5-5-5-------------|
|---2-2-2-2-2-2-2-2-2-2--5-5-5-5-5-5-5-5-5-5-5-5-5-5-5-5-5-5-------------|
|------------------------3-3-3-3-3-3-3-3-3-3-3-3-3-3-3-3-3-3-------------|

---------------------------------------------------------------------------------------

Outro - (2:52 - 3:15)

|------------------------------------------------------------------------|
|---7-7-7-7-----------------------------7-7-7-7-7------------------------|
|---6-6-6-6-0-7-7-7-7-7/9-0-9-9-9-9-0-0-7-7-7-7-7------------------------|
|---4-4-4-4-0-7-7-7-7-7---0-9-9-9-9-0-0-7-7-7-7-7------------------------| x4
|-----------0-5-5-5-5-5---0-7-7-7-7-0-0-5-5-5-5-5------------------------|
|-------------5-5-5-5-5-----7-7-7-7-----5-5-5-5-5------------------------|
                                        ^Last time hold note
---------------------------------------------------------------------------------------

Any queries or corrections, please email - Infantfinite666@hotmail.com
Comments