Funeral For A Friend - This Letter Chords & Tabs

 

This Letter Chords & Tabs

Funeral For A Friend Chords & Tabs

Version: 3 Type: Tab 0 ratings
1 star 2 stars 3 stars 4 stars 5 stars
comments

This Letter Tab

   
Tabbed by:Georgemeister
Email:bubbly_bath_piggy@hotmail.com

Tuning:c sharp. (drop D half a step down, wally) well actually it doesnt need
to be but the rest of their songs are so what the hell. if u cant be bothered
to tune down your guitar, play it a fret down. you don't even play the bottom
string anyway.clever aren't i. i'll shut up. u prolly arent reading it anyway

eb|-------------------------------------------------------------------------|
Bb|----8----/8------------8------/8-----------8------/8-----------8---------|
Gb|-8----/7-----8\7-7/8------/7------8\7 7/8-----/7------8\7 7/8-----/7-----|
Db|-------------------------------------------------------------------------|
Ab|-------------------------------------------------------------------------|
Db|-------------------------------------------------------------------------|

then he goes "Does it seem to matter anymore?"

make a Cminor7 chord shape

eb|-------------------------------------------------------------------------|
Bb|-----------4----------------3h4p3--------------4---------3--4---3\-------|
Gb|------3-------3---------3----------3-------3-----3-----------------------|
Db|----5---5-------5-----5---5----------5---5---5-----5---5-----------------|
Ab|--3----------------3-------------------3-------------3-------------------|
Db|-------------------------------------------------------------------------|
[ Tab from: http://www.guitartabs.cc/tabs/f/funeral_for_a_friend/this_letter_tab_ver_3.html ]
then he goes "The letters you wrote me" (it's quite hard to get your fingers round this bit)
    Cminor
eb|--3---4---6-------------------------------------------------------------|
Bb|--4---4---4-------------------------------------------------------------|
Gb|--5---5---5-------------------------------------------------------------|
Db|--5---5---5-------------------------------------------------------------|
Ab|--3---3---3-------------------------------------------------------------|
Db|------------------------------------------------------------------------|

"I WISH I WAS DEEEEEEEEEEEAD!" strum these a few times

eb|------------------------------------------------------------------------|
Bb|------------------------------------------------------------------------|
Gb|--13131313\888888/1010101010\88888--------------------------------------|
Db|--13131313\888888/1010101010\88888--------------------------------------|
Ab|--11111111\666666/8-8-8-8-8-\66666--------------------------------------|
Db|------------------------------------------------------------------------|


end on:

e|-----|
B|-----|
G|--10-|
D|--10-|
A|--8--|
E|-----|

Some lyrics so u can sing beautifully along with ur wonderful geetar playing:

As you swallow this confession
And leave me with this scar
As it takes another second
To let me go too far
Does it seem to matter anymore?
Your own last travel
Is taking me home

I could write another letter
And never write one word
As it takes another second
To let me go too far
Does it seem to matter anymore?
Your own last travel
Is taking me home

And if you want me to hold you
I won't

Your own last travel
Is taking you home

As you swallow your confession
And leave this as it is
As it takes another second
For I wished I was dead

The letters you wrote me
The letters you wrote me
The letters you wrote me

I wished I was dead
I wished I was dead

This letters gone too far
...bla bla bla...
And I can't let you go
Comments