Funeral For A Friend - The Getaway Plan Chords & Tabs

 

The Getaway Plan Chords & Tabs

Funeral For A Friend Chords & Tabs

Version: 1 Type: Tab 0 ratings
1 star 2 stars 3 stars 4 stars 5 stars
comments

The Getaway Plan Tab

   
Band: Funeral For A Fried
Song: The Getaway Plan
tabbed by:funeralforafrie
This is a "unreleased song" use heavy distortion throughout
erm, work out timing etc for yourself!

Intro

eb|-------------------------------------------------------|
Bb|-------------------------------------------------------|
Gb|---------------------------------------------6-6/7-7-7-| 
Db|-4-4--4-4/5---4-4--4-4/5---4-4--4-4/5---4-4--6-6/7-7-7-|
Ab|-4-4--4-4/5---4-4--4-4/5---4-4--4-4/5---4-4--4-4/5-5-5-|
Db|-4-4--4-4/5---4-4--4-4/5---4-4--4-4/5---4-4------------|

eb|-----------------------|
Bb|-----------------------|
Gb|-----------------------|
Db|-4~~~------------------|
Ab|-4~~~-Let-ring---------|
Db|-4~~~------------------|

Verse

eb|-----------------------------------|
Bb|-----------------------------------|
Gb|-----------------------------------|
Db|-2h4-4-4-2h3-4-4---5-5-5-5h7-7-7-7-|
Ab|-2h4-4-4-2h3-4-4---5-5-5-5h7-7-7-7-|
Db|-2h4-4-4-2h3-4-4---5-5-5-5h7-7-7-7-| 

Pre-Chorus
eb|----------------------------|
Bb|----------------------------|
Gb|-5-5--5-5-5--5/7-7--7/9-9--9|
Db|-x-x--x-x-x--x-x-x--x-x-x--x|
Ab|-3-3--3-3-3--3/5-5--5/7-7--7|
Db|----------------------------|

Chorus

eb|----------------------------------------------------------------------|
Bb|----------------------------------------------------------------------|
Gb|----------------------------------------------------------------------|
Db|-44-444-444-444-4-55-555-555-555-5-00-000-000-000-0-77-777-7-88-888-8-|
Ab|-44-444-444-444-4-55-555-555-555-5-00-000-000-000-0-77-777-7-88-888-8-|
Db|-44-444-444-444-4-55-555-555-555-5-00-000-000-000-0-77-777-7-88-888-8-|

Post-Chorus
[ Tab from: http://www.guitartabs.cc/tabs/f/funeral_for_a_friend/the_getaway_plan_tab.html ]
eb|--------------------------------------------|
Bb|--------------------------------------------|
Gb|--------------------------------------------|
Db|-4-4--4-4/5---4-4--4-4/5---4-4--4-4/5---4-2-|
Ab|-4-4--4-4/5---4-4--4-4/5---4-4--4-4/5---4-2-|
Db|-4-4--4-4/5---4-4--4-4/5---4-4--4-4/5---4-2-|

Verse

eb|-----------------------------------|
Bb|-----------------------------------|
Gb|-----------------------------------|
Db|-2h4-4-4-2h3-4-4---5-5-5-5h7-7-7-7-|
Ab|-2h4-4-4-2h3-4-4---5-5-5-5h7-7-7-7-|
Db|-2h4-4-4-2h3-4-4---5-5-5-5h7-7-7-7-| 


Pre-Chorus

eb|----------------------------|
Bb|----------------------------|
Gb|-5-5--5-5-5--5/7-7--7/9-9--9|
Db|-x-x--x-x-x--x-x-x--x-x-x--x|
Ab|-3-3--3-3-3--3/5-5--5/7-7--7|
Db|----------------------------|


Chorus

eb|----------------------------------------------------------------------|
Bb|----------------------------------------------------------------------|
Gb|----------------------------------------------------------------------|
Db|-44-444-444-444-4-55-555-555-555-5-00-000-000-000-0-77-777-7-88-888-8-|
Ab|-44-444-444-444-4-55-555-555-555-5-00-000-000-000-0-77-777-7-88-888-8-|
Db|-44-444-444-444-4-55-555-555-555-5-00-000-000-000-0-77-777-7-88-888-8-| 



Bridge


eb|----------------------|
Bb|----------------------|
Gb|----------------------|
Db|-4~~~-5~~~-0~~~-4~~~--|
Ab|-4~~~-5~~~-0~~~-4~~~--|
Db|-4~~~-5~~~-0~~~-4~~~--| 



e|----------------------------------------------------------------------|
B|----------------------------------------------------------------------|
G|----------------------------------------------------------------------|
D|-44-444-444-444-4-55-555-555-555-5-00-000-000-000-0-77-777-7-88-888-8-|
A|-44-444-444-444-4-55-555-555-555-5-00-000-000-000-0-77-777-7-88-888-8-|
D|-44-444-444-444-4-55-555-555-555-5-00-000-000-000-0-77-777-7-88-888-8-| 

Play the above 4 times normal, then 4 times palm muted

Outro

e|--------------------------------------------|
B|--------------------------------------------|
G|--------------------------------------------|
D|-4-4--4-4/5---4-4--4-4/5---4-4--4-4/5---4-2-|
A|-4-4--4-4/5---4-4--4-4/5---4-4--4-4/5---4-2-|
D|-4-4--4-4/5---4-4--4-4/5---4-4--4-4/5---4-2-|
Comments