Funeral For A Friend - Streetcar Chords & Tabs

 

Streetcar Chords & Tabs

Funeral For A Friend Chords & Tabs

Version: 3 Type: Tab 0 ratings
1 star 2 stars 3 stars 4 stars 5 stars
comments

Streetcar Tab

   
ARTIST: Funeral For A Friend
TITLE:  Streetcar
TABBER:	Luke Charman (emoluke {AT} gmail.com)
ALBUM:  Hours
GENRE:  Emocore
YEAR:	2005

This is Streetcar. It's 94.2% correct. I've watched them play it.
You can work out the order yourself, there are few riffs, and the order is easy.

Enjoy!

----------------------------------------------------------------------------

eb|-
Bb|-
Gb|-
Db|-
Ab|-
Db|-


Intro and Verse (Kris):

eb|--------------------------------------------------------------|
Bb|--------------------------------------------------------------|
Gb|--------------------------------------------------------------|
Db|--------------------------------------------------------------|
Ab|-44-5-555-555-555-555-555-5555-5-555-555-555-555-555-555-5555-|
Db|-44-5-555-555-555-555-555-5555-5-555-555-555-555-555-555-5555-|

eb|--------------------------------------------------------------------|
Bb|--------------------------------------------------------------------|
Gb|--------------------------------------------------------------------|
Db|--------------------------------------------------------------------|
Ab|-0-000-000-000-000-000-0000-0-000-000-000-000-000-00-10---9---5-7---|
Db|-0-000-000-000-000-000-0000-0-000-000-000-000-000-00----0---0-----0-|


Verse Part A (Darran):

eb|-----------------------|
Bb|-----------------------|
Gb|-6--4--6--4--6--4--6-7-|
Db|-0--0--0--0--0--0--0-0-|
Ab|-x--x--x--x--x--x--x-x-|
Db|-5--5--5--5--5--5--5-5-|

Verse Part B (Darran):

eb|-----------------------|
Bb|-----------------------|
Gb|-7--6--7--6--7--6--7-9-|
Db|-x--x--x--x--x--x--x-x-|
Ab|-5--4--5--4--5--4--5-7-|
Db|-0--0--0--0--0--0--0-0-|

Verse Part B (Darran):
[ Tab from: http://www.guitartabs.cc/tabs/f/funeral_for_a_friend/streetcar_tab_ver_3.html ]
eb|------------------------|
Bb|------------------------|
Gb|-11-9--11-9--11-9-11-12-|
Db|-x--x--x--x--x--x--x--x-|
Ab|-9--7--9--7--9--7--9-10-|
Db|-0--0--0--0--0--0--0--0-|

Chorus Part A (Darran):

eb|-10----------------10----------------|
Bb|----10-8-7-8-7-8-7----10-8-7-8-7-8-7-|
Gb|-------------------------------------|
Db|-------------------------------------|
Ab|-------------------------------------|
Db|-------------------------------------|

Chorus Part B (Darran):

eb|-t15p5p3p2-t14p5p3p2-t12p5p3p2h5p3p2-|
Bb|-------------------------------------|
Gb|-------------------------------------|
Db|-------------------------------------|
Ab|-------------------------------------|
Db|-------------------------------------|

Chorus (Kris):

eb|-----------------------------------------------------------------|
Bb|-----------------------------------------------------------------|
Gb|-----------------------------------------------------------------|
Db|-9-9999999999999-7-7777777777777-0-0000000000000-5-5555555555555-|
Ab|-9-9999999999999-7-7777777777777-0-0000000000000-5-5555555555555-|
Db|-9-9999999999999-7-7777777777777-0-0000000000000-5-5555555555555-|

Repeat the verse, then two choruses.

Gareth does his thing on the bass..
"Or is it just like you said it would be." Blah.

Outro Riff (Darran):

eb|--9--9--9--9--9--9-10-10-10-10-10-10-12-12-12-12-|
Bb|-10-10-10-10-10-10-10-10-10-10-10-10-10-10-10-10-|
Gb|-------------------------------------------------|
Db|-------------------------------------------------|
Ab|-------------------------------------------------|
Db|-------------------------------------------------|

Kris plays the chords from earlier here.

That's it!

----------------------------------------------------------------------------
Comments? Questions? Corrections? emoluke {AT} gmail.com
----------------------------------------------------------------------------
Comments