Funeral For A Friend - Streetcar Chords & Tabs

 

Streetcar Chords & Tabs

Funeral For A Friend Chords & Tabs

Version: 1 Type: Tab 0 ratings
1 star 2 stars 3 stars 4 stars 5 stars
comments

Streetcar Tab

   
Band : Funeral for a Friend
Song : Streetcar
tabbed by : thebestbandsever01
drop C#

Hello?
begin
Eb|-----------------------------|
Bb|-----------------------------|
Gb|-----------------------------|
Db|---5-4---2-4-----------------|
Ab|-----------------------------|
Db|-----------------------------|

((verse))
Eb|----------------------------------------|
Bb|----------------------------------------|
Gb|----------------------------------------|
Db|--5--5--5-5--5--0-0--0-0--2-4-----------|
Ab|--5--5--5-5--5--0-0--0-0--2-4-----------|
Db|--5--5--5-5--5--0-0--0-0--2-4-----------|
        x    x       x    x  

((chorus))
Eb|-----------------------------   --15----------14----------12-------------------------------|
Bb|-15-15-----------------------    -------------------------------------------(end on)--15---|
Gb|-------14-12-11-12-11-11-12--    ------141211------141211----141211-141211-----------------|
Db|-----------------------------    ----------------------------------------------------------|
Ab|-----------------------------    ----------------------------------------------------------|
Db|----------------------------- x2 ----------------------------------------------------------|

((interude to the end of the song))
Eb|--9---10--12-----------------9---10---12-10-9------------------9--10--12-10-9-10-9-7~-----|
Bb|--10--10--10----------------10---10------------10--------------10-10----------------------|
Gb|---------------(sometimes)---------------------------(end on)-----------------------------|
Db|------------------------------------------------------------------------------------------|
Ab|------------------------------------------------------------------------------------------|
Db|------------------------------------------------------------------------------------------|
[ Tab from: http://www.guitartabs.cc/tabs/f/funeral_for_a_friend/streetcar_tab.html ]
--------------------------------------Guitar 2 : 
Darren-----------------------------------------------------------
intro
Eb|--------------------------------------------|
Bb|--------------------------------------------|
Gb|--------------------------------------------|
Db|-2-4--5--5--5-5--5--0-0--0-0--2-4-----------|
Ab|-2-4--5--5--5-5--5--0-0--0-0--2-4-----------|
Db|-2-4--5--5--5-5--5--0-0--0-0--2-4-----------|
            x    x       x    x  

((verse))
Eb|----------------------------------------|
Bb|----------------------------------------|
Gb|--6--6--4--6--4--6--4--6-7--------------|
Db|--0--0--0--0--0--0--0--0-0--------------|
Ab|--x--x--x--x--x--x--x--x-x--------------|
Db|--5--5--5--5--5--5--5--5-5--------------| x 2

Eb|----------------------------------------|
Bb|----------------------------------------|
Gb|--7--7--6--7--6--7--6--7-9--------------|
Db|--x--x--x--x--x--x--x--x-x--------------|
Ab|--5--5--4--5--4--5--4--5-7--------------|
Db|--0--0--0--0--0--0--0--0-0--------------| x 2

Eb|----------------------------------------|
Bb|----------------------------------------|
Gb|--6--6--4--6--4--6--4--6-7--------------|
Db|--0--0--0--0--0--0--0--0-0--------------|
Ab|--x--x--x--x--x--x--x--x-x--------------|
Db|--5--5--5--5--5--5--5--5-5--------------| x 2

Eb|----------------------------------------|
Bb|----------------------------------------|
Gb|--11-11-9--11-9-11--9--1112-------------|
Db|--x--x--x--x--x--x--x--x-x--------------|
Ab|--9--9--7--9--7--9--7--9-10-------------|
Db|--0--0--0--0--0--0--0--0-0--------------| x 2

((chorus))
Eb|-----------------------------|
Bb|-----------------------------|
Gb|-------------11--9--7--7-----|
Db|--9--7--0--5--9--7--0--5-----|
Ab|--9--7--0--5--9--7--0--5-----|
Db|--9--7--0--5--9--7--0--5-----|

((interude))
Eb|-----------------------------------------|
Bb|-----------------------------------------|
Gb|---------------11-9-7-6--9-----------11~--|
Db|--9-7-5-4-7-----9-7-5-4--7---(end on)-9~--|
Ab|--9-7-5-4-7-----9-7-5-4--7------------9~--|
Db|--9-7-5-4-7-----9-7-5-4--7------------9~--|
     x x x x


that's it. well this is my firt tab, yo. if you have any questions, corrections, or
whatsoever e-mail me at thomas_teele@yahoo.co.jp, thanks

peace
Comments