Funeral For A Friend - Storytelling Chords & Tabs

 

Storytelling Chords & Tabs

Funeral For A Friend Chords & Tabs

Version: 1 Type: Tab 0 ratings
1 star 2 stars 3 stars 4 stars 5 stars
comments

Storytelling Tab

Funeral For A Friend - Storytelling

Guitar Parts by: Kris Roberts and Darren Smith

Sorry I am not sure of the exact tuning that Kris and Darren use. Just tune to a song by them or something.

Intro (Clean chords played by Kris)
|-----------------------
|-----------------------
|--5---7---------------
|--3---5---5---5------
|--3---5---3---2------
|--3---5---------------

Both guitars then play these chords w/ distortion

Verse (Lead)
|--------------------------------
|--------------------------------
|------5--4p0-------5--4p0----
|--------------------------------
|--3------------3---------------
|--------------------------------

Repeat throughout verse.

Verse (Rythm)
|----------------------
|----------------------
|----------------------
|--3---5---7---10----
|--3---5---7---10----
|--3---5---7---10----

Play each chord 16 times.

Both guitars then play the intro chords for the Bridge.
[ Tab from: http://www.guitartabs.cc/tabs/f/funeral_for_a_friend/storytelling_tab.html ]
Chorus (Lead)
|--------------------------------------------------------------------------------
|-------------------------------------------------------------------------------
|-5-5-5-5-5-5-5-5-5-5-5-5-5-5-5-5-4-4-4-4-4-4-4-4----------------------
|-----------------------------------------------------------5-5-5-5-3-3-3-3--
|--------------------------------------------------------------------------------
| -------------------------------------------------------------------------------

Rythm guitar carries on with the intro chords for the chorus.

Middle part
|----------------------------------------------------------------------------------------------------
|----------------------------------------------------------------------------------------------------
|----------------------------------------------------------------------------------------------------
|----------------------------------------------------------------------------------------------------
|--3--3-3--3--3-3--3-3--5--5-5--5--5-5--5-5--7--7-7--7--7-7--7-7--10--10-10--10-10-10-
|--3--3-3--3--3-3--3-3--5--5-5--5--5-5--5-5--7--7-7--7--7-7--7-7--9----9--10--10-10-10-

Then Darren plays this little solo over the top of those chords.

|---------------------------------------------------15------------------------------
|--13--12----12-13-12-13-15-13-12-13-12-13----13---12-13-12-13-15-12-
|-----------------------------------------------------------------------------------
|------------------------------------------------------------------------------------
|-----------------------------------------------------------------------------------
|------------------------------------------------------------------------------------

Not exactly sure about the very last bit sorry. If you want to play along with the whole song, just play the rythm for the middle part on clean.

Hope this helps any FFAF fans out :)
Comments