Funeral For A Friend - She Drove Me To Daytime Television Chords & Tabs

 

She Drove Me To Daytime Television Chords & Tabs

Funeral For A Friend Chords & Tabs

Version: 6 Type: Tab 0 ratings
1 star 2 stars 3 stars 4 stars 5 stars
comments

She Drove Me To Daytime Television Tab

   
This tab has got plenty of notation.
S = Slide

At the start and end of a staff, there would be:
|
|o
|
| 
|o
|
u repeat the staff which has that. and the numbers above the endings are the different ends to it.
I hope tht makes sense...
This is pretty proffesional and my first tab. 

Intro
    Q=159
    G5                              D     E
   4/4
    Gtr I
||------------------------|------------------------|
||o-----------------------|------------------------|
||------------------------|----------7--7S=9--9--9-|
||---5--5--5--5---5--5--5-|--5--5-x--x--x--x--x--x-|
||o--5--5--5--5---5--5--5-|--5--5-x--5--5S=7--7--7-|
||---5--5--5--5---5--5--5-|--5--5-x----------------|
|
|   Gtr II
||------------------------|------------------------|
||o-----------------------|------------------------|
||--11-11-11-11--11-11-11-|-11-11-x-12-12S14-14-14-|
||---x--x--x--x---x--x--x-|--x--x-x--x--x--x--x--x-|
||o--9--9--9--9---9--9--9-|--9--9-x-10-10S12-12-12-|
||------------------------|------------------------|


  G5                              D        E
|-----------------------|-------------------------|
|-----------------------|-------------------------|
|-----------------------|----------7--7S=9--9--9--|
|--5--5--5--5---5--5--5-|--5--5-x--x--x--x--x--x--|
|--5--5--5--5---5--5--5-|--5--5-x--5--5S=7--7--7--|
|--5--5--5--5---5--5--5-|--5--5-x-----------------|
|
|-----------------------|-------------------------|
|-----------------------|-------------------------|
|-11-11-11-11--11-11-11-|-11-11-x-12-12S14-14-14--|
|--x--x--x--x---x--x--x-|--x--x-x--x--x--x--x--x--|
|--9--9--9--9---9--9--9-|--9--9-x-10-10S12-12-12--|
|-----------------------|-------------------------|


  1.
  D5                            E   F#
|---------------------|----------------------|
|---------------------|----------------------|
|---------------------|---------9-9S11-11-11-|
|-0--(0)--0-x------0--|-(0)-0-x-x-x--x--x--x-|
|-0--(0)--0-x------0--|-(0)-0-x-7-7S=9--9--9-|
|-0--(0)--0-x------0--|-(0)-0-x--------------|
|
|---------------------|----------------------|
|---------------------|----------------------|
|-9--(9)-11---(11)-7--|-(7)-7-7-7-7--6--6--6-|
|-x--(x)--x----(x)-x--|-(x)-x-x-x-x--x--x--x-|
|-7--(7)--9----(9)-5--|-(5)-5-5-5-5--4--4--4-|
|---------------------|----------------------|


  D5                            E   F#
|---------------------|------------------------||
|---------------------|-----------------------o||
|---------------------|---------9-9S11-11-11---||
|-0--(0)--0-x------0--|-(0)-0-x-x-x--x--x--x---||
|-0--(0)--0-x------0--|-(0)-0-x-7-7S=9--9--9--o||
|-0--(0)--0-x------0--|-(0)-0-x----------------||
|
|---------------------|------------------------||
|---------------------|-----------------------o||
|-9--(9)-11---(11)-7--|-(7)-7-7-7-7--6--6--6---||
|-x--(x)--x----(x)-x--|-(x)-x-x-x-x--x--x--x---||
|-7--(7)--9----(9)-5--|-(5)-5-5-5-5--4--4--4--o||
|---------------------|------------------------||


  2.
  B5              G5               A5
|--------------------|-------------------|
|--------------------|-------------------|
|--------------------|-------------------|
|-9--(9)--9---(9)-5--|-(5)-5-5-5-5-7-7-7-|
|-9--(9)--9---(9)-5--|-(5)-5-5-5-5-7-7-7-|
|-9--(9)--9---(9)-5--|-(5)-5-5-5-5-7-7-7-|
|
|--------------------|-------------------|
|--------------------|-------------------|
|-9--(9)-11--(11)-7--|-(7)-7-7-7-7-6-6-6-|
|-x--(x)--x---(x)-x--|-(x)-x-x-x-x-x-x-x-|
|-7--(7)--9---(9)-5--|-(5)-5-5-5-5-4-4-4-|
|--------------------|-------------------|


  B5            G5               C#D C#D
|------------------|----------------------|
|------------------|----------------------|
|------------------|-------------6S7-6S7--|
|-9--(9)-9--(9)-5--|-(5)-5-5--5--x-x-x-x--|
|-9--(9)-9--(9)-5--|-(5)-5-5--5--4S5-4S5--|
|-9--(9)-9--(9)-5--|-(5)-5-5--5-----------|
|
|------------------|----------------------|
|------------------|----------------------|
|-7--(7)-7--(7)-9--|-(9)-7---(7)-7-6-6-6--|
|-x--(x)-x--(x)-x--|-(x)-x---(x)-x-x-x-x--|
|-5--(5)-5--(5)-7--|-(7)-5---(5)-5-4-4-4--|
|------------------|----------------------|


   Verse
    D5 G5    D5 D      E       D5 G5    D5 D      E
     PM------|                  PM------|
||---------------------------|--------------------------|
||o--------------------------|--------------------------|
||---------------7-(7)S=9--9-|--------------7-(7)S=9--9-|
||---------------x------x--x-|--------------x------x--x-|
||o--0--5--5--0--5-(5)S=7--7-|--0--5--5--0--5-(5)S=7--7-|
||---0--5--5--0--------------|--0--5--5--0--------------|
|
|    PM|      PM    PM-|        PM|      PM    PM-|
||--------------10-----------|-------------10-----------|
||o-------10--------------10-|-------10--------------10-|
||---------------------------|--------------------------|
||--11-12----12----11--12----|-11-12----12----11--12----|
||o--------------------------|--------------------------|
||---------------------------|--------------------------|


  D5 B5    D5 E      F#      D5 B5    D5 E  F# E
   PM------|                  PM------|
                                                       3x
|--------------------------|---------------------------||
|--------------------------|--------------------------o||
|--------------9-(9)S11-11-|--------------9S11S=9-(9)--||
|--------------x------x--x-|--------------x--x--x-(x)--||
|--0--9--9--0--7-(7)S=9--9-|--0--9--9--0--7S=9S=7-(7)-o||
|--0--9--9--0--------------|--0--9--9--0---------------||
|
|  PM|      PM    PM-|        PM|      PM    PM
|                                                      3x
|-------------10-----------|-------------10------------||
|-------10--------------10-|-------10----------14p10--o||
|--------------------------|---------------------------||
|-11-12----12----11--12----|-11-12----12----12---------||
|--------------------------|--------------------------o||
|--------------------------|---------------------------||


  D5 G5    D5 D      E       D5 G5    D5 D      E
   PM------|                  PM------|
|--------------------------|--------------------------|
|--------------------------|--------------------------|
|--------------7-(7)S=9--9-|--------------7-(7)S=9--9-|
|--------------x------x--x-|--------------x------x--x-|
|--0--5--5--0--5-(5)S=7--7-|--0--5--5--0--5-(5)S=7--7-|
|--0--5--5--0--------------|--0--5--5--0--------------|
|
|  PM|      PM    PM-|        PM|      PM    PM-|
|-------------10-----------|-------------10-----------|
|-------10--------------10-|-------10--------------10-|
|--------------------------|--------------------------|
|-11-12----12----11--12----|-11-12----12----11--12----|
|--------------------------|--------------------------|
|--------------------------|--------------------------|


  D5 B5    D5 E      F#      D5 B5    D5 E  F# E
   PM------|                  PM------|
|--------------------------|---------------------------|
|--------------------------|---------------------------|
|--------------9-(9)S11-11-|--------------9S11S=9-(9)--|
|--------------x------x--x-|--------------x--x--x-(x)--|
|--0--9--9--0--7-(7)S=9--9-|--0--9--9--0--7S=9S=7-(7)--|
|--0--9--9--0--------------|--0--9--9--0---------------|
|
|  PM|      PM    PM-|        PM|      PM       PM
|-------------10-----------|---------------------------|
|-------10--------------10-|-------10----14p10----10---|
|--------------------------|---------------------------|
|-11-12----12----11--12----|-11-12----12-------12------|
|--------------------------|---------------------------|
|--------------------------|---------------------------|


   Chorus
    G5                                          A5
||--------------------------|-------------------------|
||o-------------------------|-------------------------|
||--------------------------|-------------------------|
||---5--5--5--5--5--5--5--5-|--5--5--5--5--5S====7S===|
||o--5--5--5--5--5--5--5--5-|--5--5--5--5--5S====7S===|
||---5--5--5--5--5--5--5--5-|--5--5--5--5--5S====7S===|
|
|    PM|      PM       PM      PM|      PM       PM
||--------------------------|-------------------------|
||o-------10----14p10----10-|-------10----14p10----10-|
||--------------------------|-------------------------|
||--11-12----12-------11----|-11-12----12-------11----|
||o-------------------------|-------------------------|
||--------------------------|-------------------------|


  B5                              A5
|-------------------------|--------------------------||
|-------------------------|-------------------------o||
|-------------------------|--------------------------||
|--9--9--9--9--9--9--9--9-|--9S====7--7--7--7--7--7--||
|--9--9--9--9--9--9--9--9-|--9S====7--7--7--7--7--7-o||
|--9--9--9--9--9--9--9--9-|--9S====7--7--7--7--7--7--||
|
|  PM|      PM       PM      PM|      PM       PM
|-------------------------|--------------------------||
|-------10----14p10----10-|-------10----14p10----10-o||
|-------------------------|--------------------------||
|-11-12----12-------11----|-11-12----12-------11-----||
|-------------------------|-------------------------o||
|-------------------------|--------------------------||


    G5                                          A5
     PM--------------------------------|
||--------------------------|-------------------------|
||o-------------------------|-------------------------|
||--------------------------|-------------------------|
||--------------------------|--------------5S====7S===|
||o--5--5--5--5--5--5--5--5-|--5--5--5--5--5S====7S===|
||---5--5--5--5--5--5--5--5-|--5--5--5--5--5S====7S===|
|
|    PM|      PM       PM      PM|      PM       PM
||--------------------------|-------------------------|
||o-------10----14p10----10-|-------10----14p10----10-|
||--------------------------|-------------------------|
||--11-12----12-------11----|-11-12----12-------11----|
||o-------------------------|-------------------------|
||--------------------------|-------------------------|


  B5                              A5
      PM---------------|              PM---------|
|-------------------------|--------------------------||
|-------------------------|-------------------------o||
|-------------------------|--------------------------||
|--9----------------------|--9S====7-----------------||
|--9--9--9--9--9--9--9--9-|--9S====7--7--7--7--7--7-o||
|--9--9--9--9--9--9--9--9-|--9S====7--7--7--7--7--7--||
|
|  PM|      PM       PM      PM|      PM       PM
|-------------------------|--------------------------||
|-------10----14p10----10-|-------10----14p10----10-o||
|-------------------------|--------------------------||
|-11-12----12-------11----|-11-12----12-------11-----||
|-------------------------|-------------------------o||
|-------------------------|--------------------------||


                                  D     E
|-----------------------|------------------------|
|-----------------------|------------------------|
|-----------------------|----------7--7S=9--9--9-|
|-----------------------|----------x--x--x--x--x-|
|-----------------------|----------5--5S=7--7--7-|
|-----------------------|------------------------|
|
|-----------------------|------------------------|
|-----------------------|------------------------|
|-11-11-11-11--11-11-11-|-11-11-x-12-12S14-14-14-|
|--x--x--x--x---x--x--x-|--x--x-x--x--x--x--x--x-|
|--9--9--9--9---9--9--9-|--9--9-x-10-10S12-12-12-|
|-----------------------|------------------------|


  G5                              D     E
|-----------------------|-------------------------|
|-----------------------|-------------------------|
|-----------------------|----------7--7S=9--9--9--|
|--5--5--5--5---5--5--5-|--5--5-x--x--x--x--x--x--|
|--5--5--5--5---5--5--5-|--5--5-x--5--5S=7--7--7--|
|--5--5--5--5---5--5--5-|--5--5-x-----------------|
|
|-----------------------|-------------------------|
|-----------------------|-------------------------|
|-11-11-11-11--11-11-11-|-11-11-x-12-12S14-14-14--|
|--x--x--x--x---x--x--x-|--x--x-x--x--x--x--x--x--|
|--9--9--9--9---9--9--9-|--9--9-x-10-10S12-12-12--|
|-----------------------|-------------------------|


  D5                            E   F#
|---------------------|----------------------|
|---------------------|----------------------|
|---------------------|---------9-9S11-11-11-|
|-0--(0)--0-x------0--|-(0)-0-x-x-x--x--x--x-|
|-0--(0)--0-x------0--|-(0)-0-x-7-7S=9--9--9-|
|-0--(0)--0-x------0--|-(0)-0-x--------------|
|
|---------------------|----------------------|
|---------------------|----------------------|
|-9--(9)-11---(11)-7--|-(7)-7-7-7-7--6--6--6-|
|-x--(x)--x----(x)-x--|-(x)-x-x-x-x--x--x--x-|
|-7--(7)--9----(9)-5--|-(5)-5-5-5-5--4--4--4-|
|---------------------|----------------------|


  D5                            E   F#
|---------------------|-----------------------|
|---------------------|-----------------------|
|---------------------|---------9-9S11-11-11--|
|-0--(0)--0-x------0--|-(0)-0-x-x-x--x--x--x--|
|-0--(0)--0-x------0--|-(0)-0-x-7-7S=9--9--9--|
|-0--(0)--0-x------0--|-(0)-0-x---------------|
|
|---------------------|-----------------------|
|---------------------|-----------------------|
|-9--(9)-11---(11)-7--|-(7)-7-7-7-7--6--6--6--|
|-x--(x)--x----(x)-x--|-(x)-x-x-x-x--x--x--x--|
|-7--(7)--9----(9)-5--|-(5)-5-5-5-5--4--4--4--|
|---------------------|-----------------------|


  G5                              D     E
|-----------------------|------------------------|
|-----------------------|------------------------|
|-----------------------|----------7--7S=9--9--9-|
|--5--5--5--5---5--5--5-|--5--5-x--x--x--x--x--x-|
|--5--5--5--5---5--5--5-|--5--5-x--5--5S=7--7--7-|
|--5--5--5--5---5--5--5-|--5--5-x----------------|
|
|-----------------------|------------------------|
|-----------------------|------------------------|
|-11-11-11-11--11-11-11-|-11-11-x-12-12S14-14-14-|
|--x--x--x--x---x--x--x-|--x--x-x--x--x--x--x--x-|
|--9--9--9--9---9--9--9-|--9--9-x-10-10S12-12-12-|
|-----------------------|------------------------|

[ Tab from: http://www.guitartabs.cc/tabs/f/funeral_for_a_friend/she_drove_me_to_daytime_television_tab_ver_6.html ]
  G5                              D     E
|-----------------------|-------------------------|
|-----------------------|-------------------------|
|-----------------------|----------7--7S=9--9--9--|
|--5--5--5--5---5--5--5-|--5--5-x--x--x--x--x--x--|
|--5--5--5--5---5--5--5-|--5--5-x--5--5S=7--7--7--|
|--5--5--5--5---5--5--5-|--5--5-x-----------------|
|
|-----------------------|-------------------------|
|-----------------------|-------------------------|
|-11-11-11-11--11-11-11-|-11-11-x-12-12S14-14-14--|
|--x--x--x--x---x--x--x-|--x--x-x--x--x--x--x--x--|
|--9--9--9--9---9--9--9-|--9--9-x-10-10S12-12-12--|
|-----------------------|-------------------------|


  B5              G5               A5
|--------------------|-------------------|
|--------------------|-------------------|
|--------------------|-------------------|
|-9--(9)--9---(9)-5--|-(5)-5-5-5-5-7-7-7-|
|-9--(9)--9---(9)-5--|-(5)-5-5-5-5-7-7-7-|
|-9--(9)--9---(9)-5--|-(5)-5-5-5-5-7-7-7-|
|
|--------------------|-------------------|
|--------------------|-------------------|
|-9--(9)-11--(11)-7--|-(7)-7-7-7-7-6-6-6-|
|-x--(x)--x---(x)-x--|-(x)-x-x-x-x-x-x-x-|
|-7--(7)--9---(9)-5--|-(5)-5-5-5-5-4-4-4-|
|--------------------|-------------------|


  B5            G5               C#D C#D
|------------------|----------------------|
|------------------|----------------------|
|------------------|-------------6S7-6S7--|
|-9--(9)-9--(9)-5--|-(5)-5-5--5--x-x-x-x--|
|-9--(9)-9--(9)-5--|-(5)-5-5--5--4S5-4S5--|
|-9--(9)-9--(9)-5--|-(5)-5-5--5-----------|
|
|------------------|----------------------|
|------------------|----------------------|
|-7--(7)-7--(7)-9--|-(9)-7---(7)-7-6-6-6--|
|-x--(x)-x--(x)-x--|-(x)-x---(x)-x-x-x-x--|
|-5--(5)-5--(5)-7--|-(7)-5---(5)-5-4-4-4--|
|------------------|----------------------|


   Verse
    D5 G5    D5 D      E       D5 G5    D5 D      E
     PM------|                  PM------|
||---------------------------|--------------------------|
||o--------------------------|--------------------------|
||---------------7-(7)S=9--9-|--------------7-(7)S=9--9-|
||---------------x------x--x-|--------------x------x--x-|
||o--0--5--5--0--5-(5)S=7--7-|--0--5--5--0--5-(5)S=7--7-|
||---0--5--5--0--------------|--0--5--5--0--------------|
|
|    PM|      PM    PM-|        PM|      PM    PM-|
||--------------10-----------|-------------10-----------|
||o-------10--------------10-|-------10--------------10-|
||---------------------------|--------------------------|
||--11-12----12----11--12----|-11-12----12----11--12----|
||o--------------------------|--------------------------|
||---------------------------|--------------------------|


  D5 B5    D5 E      F#      D5 B5    D5 E  F# E
   PM------|                  PM------|
                                                       3x
|--------------------------|---------------------------||
|--------------------------|--------------------------o||
|--------------9-(9)S11-11-|--------------9S11S=9-(9)--||
|--------------x------x--x-|--------------x--x--x-(x)--||
|--0--9--9--0--7-(7)S=9--9-|--0--9--9--0--7S=9S=7-(7)-o||
|--0--9--9--0--------------|--0--9--9--0---------------||
|
|  PM|      PM    PM-|        PM|      PM    PM
|                                                      3x
|-------------10-----------|-------------10------------||
|-------10--------------10-|-------10----------14p10--o||
|--------------------------|---------------------------||
|-11-12----12----11--12----|-11-12----12----12---------||
|--------------------------|--------------------------o||
|--------------------------|---------------------------||


  D5 G5    D5 D      E       D5 G5    D5 D      E
   PM------|                  PM------|
|--------------------------|--------------------------|
|--------------------------|--------------------------|
|--------------7-(7)S=9--9-|--------------7-(7)S=9--9-|
|--------------x------x--x-|--------------x------x--x-|
|--0--5--5--0--5-(5)S=7--7-|--0--5--5--0--5-(5)S=7--7-|
|--0--5--5--0--------------|--0--5--5--0--------------|
|
|  PM|      PM    PM-|        PM|      PM    PM-|
|-------------10-----------|-------------10-----------|
|-------10--------------10-|-------10--------------10-|
|--------------------------|--------------------------|
|-11-12----12----11--12----|-11-12----12----11--12----|
|--------------------------|--------------------------|
|--------------------------|--------------------------|


  D5 B5    D5 E      F#      D5 B5    D5 E  F# E
   PM------|                  PM------|
|--------------------------|---------------------------|
|--------------------------|---------------------------|
|--------------9-(9)S11-11-|--------------9S11S=9-(9)--|
|--------------x------x--x-|--------------x--x--x-(x)--|
|--0--9--9--0--7-(7)S=9--9-|--0--9--9--0--7S=9S=7-(7)--|
|--0--9--9--0--------------|--0--9--9--0---------------|
|
|  PM|      PM    PM-|        PM|      PM       PM
|-------------10-----------|---------------------------|
|-------10--------------10-|-------10----14p10----10---|
|--------------------------|---------------------------|
|-11-12----12----11--12----|-11-12----12-------12------|
|--------------------------|---------------------------|
|--------------------------|---------------------------|


   Chorus
    G5                                          A5
||--------------------------|-------------------------|
||o-------------------------|-------------------------|
||--------------------------|-------------------------|
||---5--5--5--5--5--5--5--5-|--5--5--5--5--5S====7S===|
||o--5--5--5--5--5--5--5--5-|--5--5--5--5--5S====7S===|
||---5--5--5--5--5--5--5--5-|--5--5--5--5--5S====7S===|
|
|    PM|      PM       PM      PM|      PM       PM
||--------------------------|-------------------------|
||o-------10----14p10----10-|-------10----14p10----10-|
||--------------------------|-------------------------|
||--11-12----12-------11----|-11-12----12-------11----|
||o-------------------------|-------------------------|
||--------------------------|-------------------------|


  B5                              A5
|-------------------------|--------------------------||
|-------------------------|-------------------------o||
|-------------------------|--------------------------||
|--9--9--9--9--9--9--9--9-|--9S====7--7--7--7--7--7--||
|--9--9--9--9--9--9--9--9-|--9S====7--7--7--7--7--7-o||
|--9--9--9--9--9--9--9--9-|--9S====7--7--7--7--7--7--||
|
|  PM|      PM       PM      PM|      PM       PM
|-------------------------|--------------------------||
|-------10----14p10----10-|-------10----14p10----10-o||
|-------------------------|--------------------------||
|-11-12----12-------11----|-11-12----12-------11-----||
|-------------------------|-------------------------o||
|-------------------------|--------------------------||


    G5                                          A5
     PM--------------------------------|
||--------------------------|-------------------------|
||o-------------------------|-------------------------|
||--------------------------|-------------------------|
||--------------------------|--------------5S====7S===|
||o--5--5--5--5--5--5--5--5-|--5--5--5--5--5S====7S===|
||---5--5--5--5--5--5--5--5-|--5--5--5--5--5S====7S===|
|
|    PM|      PM       PM      PM|      PM       PM
||--------------------------|-------------------------|
||o-------10----14p10----10-|-------10----14p10----10-|
||--------------------------|-------------------------|
||--11-12----12-------11----|-11-12----12-------11----|
||o-------------------------|-------------------------|
||--------------------------|-------------------------|


  B5                              A5
      PM---------------|              PM---------|
|-------------------------|--------------------------||
|-------------------------|-------------------------o||
|-------------------------|--------------------------||
|--9----------------------|--9S====7-----------------||
|--9--9--9--9--9--9--9--9-|--9S====7--7--7--7--7--7-o||
|--9--9--9--9--9--9--9--9-|--9S====7--7--7--7--7--7--||
|
|  PM|      PM       PM      PM|      PM       PM
|-------------------------|--------------------------||
|-------10----14p10----10-|-------10----14p10----10-o||
|-------------------------|--------------------------||
|-11-12----12-------11----|-11-12----12-------11-----||
|-------------------------|-------------------------o||
|-------------------------|--------------------------||


 Bridge
  N.C.
|-------------|----------------|-----------------|-----------------|
|-------------|----------------|-----------------|-----------------|
|-------------|----------------|-----------------|-----------------|
|-------------|----------------|-----------------|-----------------|
|-------------|----------------|-----------------|-----------------|
|-5-4-0----0--|-(0)--0--0--0-0-|-9--(9)-9-9-9-5--|-(5)--5--5--5-5--|
|
|-------------|----------------|-----------------|-----------------|
|-------------|----------------|-----------------|-----------------|
|-------------|----------------|-----------------|-----------------|
|-------------|----------------|-----------------|-----------------|
|-------------|----------------|-----------------|-----------------|
|-------------|----------------|-----------------|-----------------|


||-----------------------------------|-------------------|
||o----------------------------------|-------------------|
||-----------------------------------|-------------------|
||-----------------------------------|-------------------|
||o----------------------------------|-------------------|
||----5----4----0-----------0--------|---(0)---0--0--0-0-|
|
||--<12>-----------------------------|-------------------|
||o------<12>------------------------|-------------------|
||------------<12>-(<12>)-----(<12>)-|-(<12>)------------|
||-----------------------------------|-------------------|
||o----------------------------------|-------------------|
||-----------------------------------|-------------------|


                                                            3x
|--------------------------------------|--------------------||
|--------------------------------------|-------------------o||
|--------------------------------------|--------------------||
|--------------------------------------|--------------------||
|--------------------------------------|-------------------o||
|---9--------(9)----9---9----9-----5---|---(5)---5--5--5-5--||
|
|                                                           3x
|-<12>---------------------------------|--------------------||
|------<12>----------------------------|-------------------o||
|-----------<12>-(<12>)---(<12>)-------|--------------------||
|--------------------------------<12>--|-(<12>)-------------||
|--------------------------------------|-------------------o||
|--------------------------------------|--------------------||


   Outro
    G5 F#5D5
     PM---|      PM
||--------------------------|--------------------------|
||o-------------------------|--------------------------|
||--------------------------|--------------------------|
||---------------------0----|-(0)-----0-----------0--0-|
||o--5--4--0-----0-----0----|-(0)-----0-----------0--0-|
||---5--4--0-----0-----0----|-(0)-----0-----------0--0-|
|
||--------10----12-10----10-|--------10----12-10----10-|
||o----10----10-------10----|-----10----10-------10----|
||--------------------------|--------------------------|
||--12----------------------|-12-----------------------|
||o-------------------------|--------------------------|
||--------------------------|--------------------------|


  B5                 G5
                                                       4x
|--------------------------|---------------------------||
|--------------------------|--------------------------o||
|--------------------------|---------------------------||
|--9----(9)--9--9--9--5----|-(5)-----5-----5-----5--5--||
|--9----(9)--9--9--9--5----|-(5)-----5-----5-----5--5-o||
|--9----(9)--9--9--9--5----|-(5)-----5-----5-----5--5--||
|
|                                                      4x
|-------10-----12-10----10-|--------10----12-10----10--||
|----10-----10-------10----|-----10----10-------10----o||
|--------------------------|---------------------------||
|-12-----------------------|-12------------------------||
|--------------------------|--------------------------o||
|--------------------------|---------------------------||


    G5 F#5D5                  G5 F#5D5
     PM---|                    PM---|
||--------------------------|-------------------------|
||o-------------------------|-------------------------|
||--------------------------|-------------------------|
||---------------0----------|--------------0----------|
||o--5--4--0-----0----------|--5--4--0-----0----------|
||---5--4--0-----0----------|--5--4--0-----0----------|
|
||--------10----12-10----10-|-------10----12-10----10-|
||o----10----10-------10----|----10----10-------10----|
||--------------------------|-------------------------|
||--12----------------------|-12----------------------|
||o-------------------------|-------------------------|
||--------------------------|-------------------------|


                           1.                          2.
  G5 F#5D5                  G5 F#5D5                    G5 F#5D5
   PM---|                    PM---|                      PM---|
|-------------------------|--------------------------||-------------------*|
|-------------------------|-------------------------o||-------------------*|
|-------------------------|--------------------------||-------------------*|
|--------------0----------|--------------0-----------||-------------0-----*|
|--5--4--0-----0----------|--5--4--0-----0----------o||--5--4--0----0-----*|
|--5--4--0-----0----------|--5--4--0-----0-----------||--5--4--0----0-----*|
|
|-------10----12-10----10-|-------10----12-10----10--||-------10----------*|
|----10----10-------10----|----10----10-------10----o||----10----10-------*|
|-------------------------|--------------------------||-------------------*|
|-12----------------------|-12-----------------------||-12----------0-----*|
|-------------------------|-------------------------o||-------------0-----*|
|-------------------------|--------------------------||-------------0-----*|
Comments