Funeral For A Friend - She Drove Me To Daytime Television Chords & Tabs

 

She Drove Me To Daytime Television Chords & Tabs

Funeral For A Friend Chords & Tabs

Version: 5 Type: Tab 0 ratings
1 star 2 stars 3 stars 4 stars 5 stars
comments

She Drove Me To Daytime Television Tab

   
-------------------------------------------------------------------------------
	 She drove me to daytime tv - Funeral for a friend
-------------------------------------------------------------------------------
Tabbed by: Sunny
Email:sundeep_8310@hotmail.com

Definately one of the best songs on the album and took me a while to get my head
round the 2 guitar parts and riffs but i think this is pretty much right, i saw
the main chord shapes of their video so the basics of the song should be almost
perfect.
Im positive i've got the lead parts perfect and they took me quite a while
The intro guitar parts may sound slightly wrong at first but this is probably due
to the fact that both guitar parts need to be played at the same time and in the
right timing.
if u noticed any mistakes please comment on it or e-mail me thx 

Tuning:standard

| /  slide up
| \  slide down
| h  hammer-on
| p  pull-off
| ~  vibrato
| +  harmonic
| x  Mute note

Intro 
(guitar 1)listen for timing

e|-------------------------------------------------------------------------|
B|--6------6/7/9-----6------7/9--------------------------------------------|
G|--6------6/8/10----6------8/10---6-8-10--8-10-8-10-6--6/10-10------------|
D|--4----------------4-----------------------------------------------------|
A|--4--X8------------4--X8-------------------------------------------------|
E|-------------------------------------------------------------------------|

e|-------------------------------------------------------------------------|
B|--6------6/7/9-----6------7/9--------------------------------------------|
G|--6------6/8/10----6------8/10---8-10-6--5--6-8-5-5h6-5h6---------------|
D|--4----------------4-----------------------------------------------------|
A|--4--X8------------4--X8-------------------------------------------------|
E|-------------------------------------------------------------------------|

Intro 
(guitar 2)listen for timing

e|-------------------------------------------------------------------------|
B|-------------------------------------------------------------------------|
G|--6------6/8/10----6------6/8----6--6x--6--6x--6/8---6--6x--6--6x--6/8---|
D|--6------6/8/8-----6------6/6----6--6x--6--6x--------6--6x--6--6x--------|
A|--4--X8--4/6/8-----4--X8--4/6----4--4x--4--4x--------4--4x--4--4x--------|
E|-------------------------------------------------------------------------|

e|-------------------------------------------------------------------------|
B|-------------------------------------------------------------------------|
G|--6------6/8/10----6------6/8----8--10--6---6---8---8--6--6---5h6--5h6---|
D|--6------6/8/8-----6------6/6----8--10--6---6---8---8--6--6--------------|
A|--4--X8--4/6/8-----4--X8--4/6----6--8---4---4---6---6--4--4--------------|
E|-------------------------------------------------------------------------|

Verse
(Lead)
e|-----(---------9----------)---------------9----8-------------------------|
B|-----(-----9-6x---6-6x-8x-)-X3--------9-6x---6----9----------------------|
G|-----(6-8x----------------)------6-8x-----------------repeat all 4 times-|
D|-------------------------------------------------------------------------|
A|-------------------------------------------------------------------------|
E|-------------------------------------------------------------------------|

   on 4th repeat instead of last part enter chorus with:
e|-----------8-----9------------------------------------------------------|
B|------9-6----9-6---------------------------------------------------------|
G|--6-8-------------------------------------------------------------------|
D|-------------------------------------------------------------------------|
A|-------------------------------------------------------------------------|
E|-------------------------------------------------------------------------|
[ Tab from: http://www.guitartabs.cc/tabs/f/funeral_for_a_friend/she_drove_me_to_daytime_television_tab_ver_5.html ]
Verse 
(rhythm)
e|-------------------------------------------------------------------------|
B|-------------------------------------------------------------------------|
G|--6x-----5h6--6x-----6/8--8-----8/10--10-----8--10--8--6-----------------|
D|--4x--X4------4x--X6------6--X6--------8--X6---------------repeat 4 times|
A|--4x----------4x----------6------------8---------------------------------|
E|-------------------------------------------------------------------------|

Chorus - 1st half
 (lead)  
e|----------8----------------8-----9---------------------------------------|
B|------9-6---9-6-9------9-6---9-6-----------------------------------------|
G|--6-8--------------6-8---------------------------------------------------|
D|-------------------------------------------------------------------------|
A|-------------------------------------------------------------------------|
E|-------------------------------------------------------------------------|

Chorus - 1st half
 (rhythm)
e|-------------------------------------------------------------------------|
B|-------------------------------------------------------------------------|
G|--6-----6/8/10--10-----8-------------------------------------------------|
D|--4-X14-4/6/8----8-X6--6--X8-----repeat twice----------------------------|
A|--4-----4/6/8----8-----6-------------------------------------------------|
E|-------------------------------------------------------------------------|

Chorus - second half
(lead)
e|------------8-------------------8------9---------------------------------|
B|-------9-6x---9-6x-9-------9-6x---9-6x-----------------------------------|
G|--6-8x----------------6-8x-----------------------------------------------|
D|-------------------------------------------------------------------------|
A|-------------------------------------------------------------------------|
E|-------------------------------------------------------------------------|

Chorus - 1st half
 (rhythm)
e|-------------------------------------------------------------------------|
B|-------------------------------------------------------------------------|
G|--6x-----6/8/10--10----10\8---8-----------------------------------------|
D|--4x-X14-4/6/8----8-X6--8\6---6--X8-----repeat twice---------------------|
A|--4x-----4/6/8----8-----8\6---6------------------------------------------|
E|-------------------------------------------------------------------------|

Bridge? (after chorus)

e|-------------------------------------------------------------------------|
B|-6-X8---6/7/9------------------------------------------------------------|
G|--------6/8/10----------after this refer to parts of the intro-----------|
D|-------------------------------------------------------------------------|
A|-------------------------------------------------------------------------|
E|-------------------------------------------------------------------------|

Outro
(rhythm)listen for timing

e|-------------------------------------------------------------------------|
B|-------------------------------------------------------------------------|
G|-----------------3--3-3-3------------------------------------------------|
D|--4-3----------------------4-4-4-4---4-4--repeat a few times-------------|
A|------4--4--4-4----------------------------------------------------------|
E|-------------------------------------------------------------------------|

e|-------------------------------------------------------------------------|
B|-------------------------------------------------------------------------|
G|----------6-6-6/11--11-11--6--6----------------------6--is the last note-|
D|--4-3-----6-6-6/11--9--9---6--6--repeat-a few times-----(add a bend where|
A|------4-4-4-4-4/9---9--9---4--4--------------------------necessary)------|
E|-------------------------------------------------------------------------|

Outro 
 (lead)
e|--11-------11------------------------------------------------------------|
B|-----14-------14---------------------------14----16-14----14--repeat till
G|--------13-------13----repeat twice--13-15----13-------15-----end--------|
D|--------------------11---------------------------------------------------|
A|-------------------------------------------------------------------------|
E|-------------------------------------------------------------------------|

well thats it, think its right hope it helps :)

===============================================================================
Comments