Funeral For A Friend - She Drove Me To Daytime Television Chords & Tabs

 

She Drove Me To Daytime Television Chords & Tabs

Funeral For A Friend Chords & Tabs

Version: 4 Type: Tab 0 ratings
1 star 2 stars 3 stars 4 stars 5 stars
comments

She Drove Me To Daytime Television Tab

She drove me to daytime TV - Funeral For a Friend
Casually Dressed And Deep In Conversation

Ok so all the tabs here for this song are crap or dont even contain all the parts!
there are 2 guitars in the band you know! ok so here is it, please rate and leave comments!
note: if you rate this tab badly, please tell me what i have missed and i will try my best
to fix it

kris plays the lead in this song, the top tab is his parts and underneith that is darrens.

Intro:

...cant beat the best ones...

	kris
Eb|--------------------------------------------------------------------|
Bb|-7-7-7-7---7-7-7-7-------------7-7-7-7---7-7-7-7--------------------|
Gb|-x-x-x-x---x-x-x-x-x-x-7-9-9---x-x-x-x---x-x-x-x-x-x-7-9------------|
Db|-4-4-4-4---4-4-4-4-x-x-x-x-x---4-4-4-4---4-4-4-4-x-x-x-x------------|
Ab|-------------------x-x-5/7-7---------------------x-x-5/7------------|
Db|--------------------------------------------------------------------|
  |                                                                    |
  |    darren   						       |
Eb|--------------------------------------------------------------------|
Bb|--------------------------------------------------------------------|
Gb|-----------------------7-9-9-------------------------7-9------------|
Db|-5-5-5-5---5-5-5-5-----x-x-x---5-5-5-5---5-5-5-5-----x-x------------|
Ab|-5-5-5-5---5-5-5-5-----5/7-7---5-5-5-5---5-5-5-5-----5/7------------|
Db|-5-5-5-5---5-5-5-5-0-0---------5-5-5-5---5-5-5-5-0-0----------------|
		      x x			    x x

	kris
Eb|--------------------------------------------------------------------|
Bb|--------------------------------------------------------------------|
Gb|-9---11--7-7-7-x-x-7-9-9--9---11--7-7-7-x-x-7-9-9-------------------|
Db|-x---x---x-x-x-x-x-x-x-x--x---x---x-x-x-x-x-x-x-x-------------------|
Ab|-7---9---5-5-5-x-x-5/7-7--7---9---5-5-5-x-x-5/7-7-------------------|
Db|-0---0---0-0-0------------0---0---0-0-0-----------------------------|
  |                                                                    |
  |    darren   						       |
Eb|--------------------------------------------------------------------|
Bb|--------------------------------------------------------------------|
Gb|-9---11--7-7-7-----7-9-9--9---11--7-7-7-----7-9-9-------------------|
Db|-x---x---x-x-x-----x-x-x--x---x---x-x-x-----x-x-x-------------------|
Ab|-7---9---5-5-5-----5/7-7--7---9---5-5-5-----5/7-7-------------------|
Db|-0---0---0-0-0-0-0--------0---0---0-----0-0-------------------------|
		  x x			   x x

	kris
Eb|--------------------------------------------------------------------|
Bb|-7-7-7-7---7-7-7-7-------------7-7-7-7---7-7-7-7--------------------|
Gb|-x-x-x-x---x-x-x-x-x-x-7-9-9---x-x-x-x---x-x-x-x-x-x-7-9------------|
Db|-4-4-4-4---4-4-4-4-x-x-x-x-x---4-4-4-4---4-4-4-4-x-x-x-x------------|
Ab|-------------------x-x-5/7-7---------------------x-x-5/7------------|
Db|--------------------------------------------------------------------|
  |                                                                    |
  |    darren   						       |
Eb|--------------------------------------------------------------------|
Bb|--------------------------------------------------------------------|
Gb|-----------------------7-9-9-------------------------7-9------------|
Db|-5-5-5-5---5-5-5-5-----x-x-x---5-5-5-5---5-5-5-5-----x-x------------|
Ab|-5-5-5-5---5-5-5-5-----5/7-7---5-5-5-5---5-5-5-5-----5/7------------|
Db|-5-5-5-5---5-5-5-5-0-0---------5-5-5-5---5-5-5-5-0-0----------------|
		      x x		            x x

	kris
Eb|--------------------------------------------------------------------|
Bb|--------------------------------------------------------------------|
Gb|-9-9-117-7-7-7--6-6-9-6-6-6-----------------------------------------|
Db|-x-x-x-x-x-x-x--x-x-x-x-x-x-----------------------------------------|
Ab|-7-7-9-5-5-5-5--4-4-7-4-4-4-----------------------------------------|
Db|-7-7/9/5-5-5-5--4-4/7-4-4-4-----------------------------------------|
  |                                                                    |
  |    darren   						       |
Eb|--------------------------------------------------------------------|
Bb|--------------------------------------------------------------------|
Gb|-9-7-117-7-7-7--6-6-9-6-6-6----6-7-6-7------------------------------|
Db|-x-x-x-x-x-x-x--x-x-x-x-x-x----x-x-x-x------------------------------|
Ab|-7-7-9-5-5-5-5--4-4-7-4-4-4----4/5/4/5------------------------------|
Db|-7-7/9/5-5-5-5--4-4/7-4-4-4--0--------------------------------------|
			        x

Verse:
...turn your camera away from me...
	kris...kris plays it this way but for a easier option look at the end of the tab
Eb|----------10--------------------10-------------------10-------------|
Bb|-----10----------10--------10----------10-------10----------10------|
Gb|-6-7----7----6-7------6-7-----7----6-7------6-7----7----6-7---------|
Db|--------------------------------------------------------------------|
Ab|--------------------------------------------------------------------|
Db|--------------------------------------------------------------------|
  | x x   x     x x      x x     x    x x      x x    x    x x         |
  |    darren   						       |
Eb|--------------------------------------------------------------------|
Bb|--------------------------------------------------------------------|
Gb|--------------7-9------------------7-9-------------------9-11-------|
Db|--------------x-x------------------x-x-------------------x-x--------|
Ab|--------------5/7------------------5/7-------------------7/9--------|
Db|-0--5-5---0-----------0--5-5---0------------0--9-9---0--------------|
    x  x x   x           x  x x   x            x  x x   x

	kris
Eb|----------10---9p5--------------------------------------------------|
Bb|-----10-------------------------------------------------------------|
Gb|-6-7----7----7------------------------------------------------------|
Db|--------------------------------------------------------------------|
Ab|--------------------------------------------------------------------|
Db|--------------------------------------------------------------------|
  | x x    x    x                                                      |
  |    darren   						       |
Eb|--------------------------------------------------------------------|
Bb|--------------------------------------------------------------------|
Gb|--------------9-11-9-7----------------------------------------------|
Db|--------------x-x--x-x----------------------------------------------|
Ab|--------------7/9-/7/5----------------------------------------------|
Db|-0--9-9---0---------------------------------------------------------|
    x  x x   x
[ Tab from: http://www.guitartabs.cc/tabs/f/funeral_for_a_friend/she_drove_me_to_daytime_television_tab_ver_4.html ]
play the verse 3 times then play this variation for the pre chorus
	kris...again look at the bottom of the tab for an easier way to play this
Eb|----------10--------------------10-------------------10-------------|
Bb|-----10----------10--------10----------10-------10----------10------|
Gb|-6-7----7----6-7------6-7-----7----6-7------6-7----7----6-7---------|
Db|--------------------------------------------------------------------|
Ab|--------------------------------------------------------------------|
Db|--------------------------------------------------------------------|
  | x x   x     x x      x x     x    x x      x x    x    x x         |
  |    darren   						       |
Eb|--------------------------------------------------------------------|
Bb|--------------------------------------------------------------------|
Gb|--------------7-9------------------7-9-------------------9-11-------|
Db|--------------x-x------------------x-x-------------------x-x--------|
Ab|--------------5/7------------------5/7-------------------7/9--------|
Db|-0--5-5---0-----------0--5-5---0------------0--9-9---0--------------|
    x  x x   x           x  x x   x            x  x x   x
	kris
Eb|----------9p5---10--------------------------------------------------|
Bb|-----10-------------------------------------------------------------|
Gb|-6-7----7-----7-----------------------------------------------------|
Db|--------------------------------------------------------------------|
Ab|--------------------------------------------------------------------|
Db|--------------------------------------------------------------------|
  | x x    x     x                                                     |
  |    darren   						       |
Eb|--------------------------------------------------------------------|
Bb|--------------------------------------------------------------------|
Gb|--------------9-11-9------------------------------------------------|
Db|--------------x-x--x------------------------------------------------|
Ab|--------------7/9-/7------------------------------------------------|
Db|-0--9-9---0---------------------------------------------------------|
    x  x x   x

Chorus:
...such holidays in the sun dont come without sacrifices...
	kris
Eb|----------9p5----------------9p5---10-------------------------------|
Bb|-----10---------10------10------------------------------------------|
Gb|-6-7----7-----7-----6-7----7-----7----------------------------------| X4
Db|--------------------------------------------------------------------|
Ab|--------------------------------------------------------------------|
Db|--------------------------------------------------------------------|
  |                                                                    |
  |    darren   						       |
Eb|--------------------------------------------------------------------|
Bb|--------------------------------------------------------------------|
Gb|-7-7-7-7-7-7-7-7-7-7-7-7--7-9-9-11--11111111111-9-9-9-9-9-9-9-------|
Db|-5-5-5-5-5-5-5-5-5-5-5-5--5-7-7-9---9-9-9-9-9-9-7-7-7-7-7-7-7-------| X2
Ab|-5-5-5-5-5-5-5-5-5-5-5-5--5-7-7-9---9-9-9-9-9-9-7-7-7-7-7-7-7-------|
Db|-5-5-5-5-5-5-5-5-5-5-5-5--5/7-7/9---9-9-9-9-9-9/7-7-7-7-7-7-7-------|

Eb|----------9p5----------------9p5---10-------------------------------|
Bb|-----10---------10------10------------------------------------------|
Gb|-6-7----7-----7-----6-7----7-----7----------------------------------| X4
Db|--------------------------------------------------------------------|
Ab|--------------------------------------------------------------------|
Db|--------------------------------------------------------------------|
  | x x    x     x     x x    x     x                                  |
  |    darren   						       |
Eb|--------------------------------------------------------------------|
Bb|--------------------------------------------------------------------|
Gb|-7-7-7-7-7-7-7-7-7-7-7-7--7-9-9-11--11111111111111-119--9-9-9-9-9-9-|
Db|-5-5-5-5-5-5-5-5-5-5-5-5--5-7-7-9---9-9-9-9-9-9-9--9-7--7-7-7-7-7-7-| X2
Ab|-5-5-5-5-5-5-5-5-5-5-5-5--5-7-7-9---9-9-9-9-9-9-9--9-7--7-7-7-7-7-7-|
Db|-5-5-5-5-5-5-5-5-5-5-5-5--5/7-7/9---9-9-9-9-9-9-9--9/7--7-7-7-7-7-7-|
    x x x x x x x x x x x x            x x x x x           x x x x x x

then play all of above again for the second verse and second chorus

Bridge:
	kris, kris comes in with this the second time darren playes this part
Eb|-----------------<12>-----------------------------------------------|
Bb|----------------------<12>------------------------------------------|
Gb|--------------------------------------------------------------------|
Db|-----------------------------<12>-----------------------------------|X7
Ab|--------------------------------------------------------------------|
Db|--------------------------------------------------------------------|
  |                                                                    |
  |    darren   						       |
Eb|--------------------------------------------------------------------|
Bb|--------------------------------------------------------------------|
Gb|--------------------------------------------------------------------|
Db|--------------------------------------------------------------------|X8
Ab|-----5~5~5~5~5~-----------------------------------------------------|
Db|-5-4-0-0-0-0-0---9~~9~9~9--5~~5~5~5---------------------------------|

	kris
Eb|------10----12-10----10--------10----12-10----10--------------------|
Bb|---10----10-------10--------10----10-------10-----------------------|
Gb|-7------------------------7-----------------------------------------|
Db|--------------------------------------------------------------------|
Ab|--------------------------------------------------------------------|
Db|--------------------------------------------------------------------|
  |                                                                    |
  |    darren   						       |
Eb|--------------------------------------------------------------------|
Bb|--------------------------------------------------------------------|
Gb|--------------------------------------------------------------------|
Db|-5-4-0-0--0---------------9--9-9-9--5--5-5-5------------------------|
Ab|-5-4-0-0--0---------------9--9-9-9--5--5-5-5------------------------|
Db|-5-4-0-0--0---------------9--9-9-9--5--5-5-5------------------------|
    x x x x

Outro:
	kris, this is played int he video of the song but its not so clear on the album
Eb|--------------------------------------------------------------------|
Bb|--------------------------------------------------------------------|
Gb|-7-7-7-7-7-9-9-9-9--------------------------------------------------|
Db|-x-x-x-x-x-x-x-x-x--------------------------------------------------| X8
Ab|-5-5-5-5-5/7-5-5-5--------------------------------------------------|
Db|--------------------------------------------------------------------|
  |                                                                    |
  |    darren   						       |
Eb|--------------------------------------------------------------------|
Bb|--------------------------------------------------------------------|
Gb|--------------------------------------------------------------------|
Db|-5-4-0-0------------------------------------------------------------| X8
Ab|-5-4-0-0------------------------------------------------------------|
Db|-5-4-0-0------------------------------------------------------------|
    x x x x





the easier way to play kris' part in the pre chorus is thus:
	kris
Eb|-------------10---------------------|
Bb|-------10-------------10------------|
Gb|------------------------------------|
Db|-11-12----12----11-12---------------|
Ab|------------------------------------|
Db|------------------------------------|
    x  x     x     x  x

DANIEL ALEXANDER REID
Comments