Funeral For A Friend - Roses For The Dead Chords & Tabs

 

Roses For The Dead Chords & Tabs

Funeral For A Friend Chords & Tabs

Version: 4 Type: Tab 0 ratings
1 star 2 stars 3 stars 4 stars 5 stars
comments

Roses For The Dead Tab

All done with both hand finger tapping, left hand doing strings C# and G# and right hand doing f# and a#

d#---------------------------------------|
a#--------------------------12-----------|
f#-----12-----11-------------------11h12-|    x 2
C#---9-------9------9-11---9------9------|
G#-7--------7------7------7------7-------|
C#---------------------------------------|
[ Tab from: http://www.guitartabs.cc/tabs/f/funeral_for_a_friend/roses_for_the_dead_tab_ver_4.html ]
d#---------------------------------------|
a#--------------------------12-----------|
f#-----12-----11-------------------11h12-|   
C#---5-------5------5-11---5------5------|
G#-3--------3------3------3------3-------|
C#---------------------------------------|

d#---------------------------------------|
a#--------------------------12-----------|
f#-----12-----11-------------------11h12-|   
C#---7-------7------7-11---7------7------|
G#-5--------5------5------5------5-------|
C#---------------------------------------|
Comments