Funeral For A Friend - Roses For The Dead Chords & Tabs

 

Roses For The Dead Chords & Tabs

Funeral For A Friend Chords & Tabs

Version: 3 Type: Tab 0 ratings
1 star 2 stars 3 stars 4 stars 5 stars
comments

Roses For The Dead Tab

Written by kris Roberts (Funeral For A Friend)
Tabbed by Cameron Coles

This tab is correct, I was shown how to play it by Kris Roberts (FFAF guitarist)

It's all 2 hand tapping.
Enjoy! You use your left hand to tap the 7-9
and use your right hand to tap the 11 and 12's

[ Tab from: http://www.guitartabs.cc/tabs/f/funeral_for_a_friend/roses_for_the_dead_tab_ver_3.html ]
eb-------------------------------------------------------------------------|
bb--------------------------12p0---------------------------------12p0------|
gb-----12p0---11p0-----------------11p0-----12p0---11p0----------------11p0|
Db---9---------------12p0-----------------9---------------12p0-------------|
Ab-7--------7------7------7------7------7--------7------7------7------7----|
Db-------------------------------------------------------------------------|

eb-------------------------------------------------------------------------|
bb--------------------------12p0---------------------------------12p0------|
gb-----12p0---11p0-----------------11p0-----12p0--11p0-----------------11p0|
Db---5---------------12p0-----------------7---------------12p0-------------|
Ab-3--------3------3------3------3------5--------5------5------5------5----|
Db-------------------------------------------------------------------------|
Comments