Funeral For A Friend - Rookie Of The Year Chords & Tabs

 

Rookie Of The Year Chords & Tabs

Funeral For A Friend Chords & Tabs

Version: 2 Type: Tab 0 ratings
1 star 2 stars 3 stars 4 stars 5 stars
comments

Rookie Of The Year Tab

Intro

Both

Eb|--------------------------------------|
Bb|--------------------------------------|
Gb|-----14-10-12--777-777-999-666-7-4-2--|
Db|--9---x--x--x--777-777-999-666-7-4-2--|
Ab|--9--12--8-10--555-555-777-444-5-2-0--|
Db|--9-----------------------------------|

The small part at the end of the intro is (I think):

Eb|--------------------------------------|
Bb|--------------------------------------|
Gb|---------------------------------7----|
Db|--5555-555-555-555-555-555-555-7-7----|
Ab|--5555-555-555-555-555-555-555-7-5----|
Db|--5555-555-555-555-555-555-555-7------|

Verse

Both

Eb|------------------------------------------------------------------|
Bb|-------------------(15)-------------------------------------------|
Gb|-----------------------(14)-----------(14)-(16)-(14)--------------|
Db|--0000-00-0000-00------------0000-00------------------------------|
Ab|--0000-00-0000-00------------0000-00------------------------------|
Db|--0000-00-0000-00------------0000-00------------------------------|
     .... .. .... ..            .... ..

Eb|-----------------------------------------------------------------|
Bb|-------------------(15)------------------------------------------|
Gb|-----------------------(14)-----------(14)-(16)-(14)-------------|
Db|--0000-00-0000-00------------0000-00-----------------------------|
Ab|--0000-00-0000-00------------0000-00-----------------------------|
Db|--0000-00-0000-00------------0000-00-----------------------------|
     .... .. .... ..            .... ..


Chorus

Guitar 1

Eb|-----------14-12-10----------14-12-10------------------------------------|
Bb|-----13---------------13----------------13-------------------------------|
Gb|--12----12---------12----12----------12----12-11-11-10-10-10-10h12-12h14-|
Db|-------------------------------------------------------------------------|
Ab|-------------------------------------------------------------------------|
Db|-------------------------------------------------------------------------|

Guitar 2
[ Tab from: http://www.guitartabs.cc/tabs/f/funeral_for_a_friend/rookie_of_the_year_tab_ver_2.html ]
Eb|--------------------------------------------------------------------|
Bb|--------------------------------------------------------------------|
Gb|------------77777777------------------------------------------------|
Db|--55555555--77777777------------------------------------------------|
Ab|--55555555--55555555------------------------------------------------|
Db|--55555555----------------------------------------------------------|


(The section from 'In desperation.. my only light..')

Guitar 2

Eb|----------------------------------------------------------------------|
Bb|----------------------------------------------------------------------|
Gb|--7-7-7-6-6-6-7-7--6-7h12---------------------------------------------|
Db|--7-7-7-6-6-6-7-7--6-7h12---------------------------------------------|
Ab|--5-5-5-4-4-4-5-5--4-5h10---------------------------------------------|
Db|----------------------------------------------------------------------|

Bridge

Guitar 1

Eb|----9-10-------10-9----------9-10-------12-10-----------------------|
Bb|-10---------10------10----10---------10-------10--------------------|
Gb|--------------------------------------------------------------------|
Db|--------------------------------------------------------------------|
Ab|--------------------------------------------------------------------|
Db|--------------------------------------------------------------------|

Guitar 2


Eb|----------------------------------------------------------------------------|
Bb|----------------------------------------------------------------------------|
Gb|----------------------------------------------------------------------------|
Db|0~---000---0~---000----55555555-00000000--4444-55555555--00000000--4444---|
Ab|0~---000---0~---000----55555555--00000000--4444--55555555--00000000--4444---|
Db|0~---000---0~---000----55555555--00000000--4444--55555555-00000000--4444---|
        ...        ...


Last Chorus

Guitar 1

(same)

Guitar 2

Eb|----------------------------------------------------------------------------|
Bb|----------------------------------------------------------------------------|
Gb|--44444444------------------------------------------------------------------|
Db|--22222222-55555555--------------------------------------------------------|
Ab|--22222222-55555555--------------------------------------------------------|
Db|------------55555555--------------------------------------------------------|
Comments