Funeral For A Friend - Rookie Of The Year Chords & Tabs

 

Rookie Of The Year Chords & Tabs

Funeral For A Friend Chords & Tabs

Version: 1 Type: Bass Tab 0 ratings
1 star 2 stars 3 stars 4 stars 5 stars
comments

Rookie Of The Year Bass Tab

   
#----------------------------------PLEASE NOTE---------------------------------#
#This file is the author's own work and represents their interpretation of the-#
#song. You may only use this file for private study, scholarship, or research.-#
#------------------------------------------------------------------------------#

Funeral For A Friend - Rookie Of The Year
Album: Casually Dressed And Deep In Conversation
Tabber: tobaducanthaveit

This is my first tab so be nice ok?

Intro
G---------------------------|
D---------------------------|
A----1-hold-----------------| x1
E---------------------------|

Verse 1 (x4) {the promise that he made}
G-----------------------------------------------------------------|
D-----------------------------------------------------------------|
A---1-1-1-1-1-1-----------------6-6-6--3-3-3--4-------------------|
E------------------2-2-2-2-2-2----------------------4-4-----------|

Pre thingy (x1) [2nd time{left you begging for more}]
G-----------------------------------------------------------------|
D-----------------------------------------------------------------|
A-----------------------------------------------------------------|
E----2-2-2-2-2-2-2-2-2-2-2-2-2-2-2-2-2-2-2-2-2-4------------------|

Verse 2 (x2) [just before {Thank you...}]
G-----------------------------------------------------------------|
D-----------------------------------------------------------------|
A-----4-4-4-4-4-4-4--------4-4-4-4-4-4-4--------------------------|
E-----------------------------------------------------------------|

G-----------------------------------------------------------------|
D----------------------------------3------------------------------|
A-----4-4-4-4-4-4-4---------6-------------------------------------|
E-----------------------------------------------------------------|

G-----------------------------------------------------------------|
D-----------------------------------------------------------------|
A-----4-4-4-4-4-4-4--------4-4-4-4-4-4-4--------------------------|
E-----------------------------------------------------------------|

G-----------------------------------------------------------------|
D-----------------------------------------------------------------|
A-----4-4-4-4-4-4-4---------6-------------------------------------|
E-----------------------------------4-----------------------------|

Chorus 1 (x1) {your white wedding dress}
G-----------------------------------------------------------------|
D-----------------------------------------------------------------|
A--------------------------------------4-4-4-4-4-4-4-4-4-4-4-4----|
E------2-2-2-2-2-2-2-2-2-2-2-2-2----------------------------------|

G-----------------------------------------------------------------|
D-----------------------------------------------------------------|
A--------------------------------------4-4-4-4-4-4-4-4-4-4-4-4----|
E------2-2-2-2-2-2-2-2-2-2-2-2-2----------------------------------|
[ Tab from: http://www.guitartabs.cc/tabs/f/funeral_for_a_friend/rookie_of_the_year_btab.html ]
G-----------------------------------------------------------------|
D-----------------------------------------------------------------|
A-----4-4-4-4-4-4-4--------4-4-4-4-4-4-4--------------------------|
E-----------------------------------------------------------------|

Verse 3 (x2) [just before {Thank you...}]
G-----------------------------------------------------------------|
D-----------------------------------------------------------------|
A-----4-4-4-4-4-4-4--------4-4-4-4-4-4-4--------------------------|
E-----------------------------------------------------------------|

G-----------------------------------------------------------------|
D----------------------------------3------------------------------|
A-----4-4-4-4-4-4-4---------6-------------------------------------|
E-----------------------------------------------------------------|

G-----------------------------------------------------------------|
D-----------------------------------------------------------------|
A-----4-4-4-4-4-4-4--------4-4-4-4-4-4-4--------------------------|
E-----------------------------------------------------------------|

G-----------------------------------------------------------------|
D-----------------------------------------------------------------|
A-----4-4-4-4-4-4-4---------6-------------------------------------|
E-----------------------------------4-----------------------------|

Chorus 2 (x2) {your white wedding dress}
G-----------------------------------------------------------------|
D-----------------------------------------------------------------|
A--------------------------------------4-4-4-4-4-4-4-4-4-4-4-4----|
E------2-2-2-2-2-2-2-2-2-2-2-2-2----------------------------------|

G-----------------------------------------------------------------|
D-----------------------------------------------------------------|
A--------------------------------------4-4-4-4-4-4-4-4-4-4-4-4----|
E------2-2-2-2-2-2-2-2-2-2-2-2-2----------------------------------|

Instead of last A: 4 2nd time through, do this
A: 4-4-4-6-4-4-6-4-4-6-8-

Break

Instrumental (x4)
G------------------------------------|
D------------------------------------|
A---/-4-4-4-4-4-4-4-4-4-4-4-4--------|
E------------------------------------|

Middle 8 (x2) {when time will...}
G--------------------------------------------------------------|
D--------------------------------------------------------------|
A---------------------------------4-4-4-4-4-4------------------|
E---2-2-2-2-2-2-2-2-2-2-2-2----------------1-1-1-1-1-1---------|

Final Chorus (x2)
G--------------------------------------------------------------|
D--------------------------------------------------------------|
A---1-1-1-1-1-1-1-1-1-1-1-1------------------------------------|
E---------------------------------2-2-2-2-2-2-2-2-2-2-2-2-2----|

Last notes (x4)
G--------------------------------------------------------------|
D--------------------------------------------------------------|
A---4~---------------------------------------------------------|
E--------------------------------------------------------------|
Comments