Funeral For A Friend - Red Is The New Black Chords & Tabs

 

Red Is The New Black Chords & Tabs

Funeral For A Friend Chords & Tabs

Version: 3 Type: Tab 0 ratings
1 star 2 stars 3 stars 4 stars 5 stars
comments

Red Is The New Black Tab

   
Artist-Funeral For A Friend
Track-Red Is The New Black
Album-Casually Dressed And Deep In Conversation
Any comments, questions or queries then mail me at ruled_by_secrecy_6@hotmail.com

Tuning
Db Ab Db Gb Bb eb or C# G# C# F# A# D#

Intro Pt.1 (Clean)
eb|------------------------------------------------------|
Bb|------------------------------------------------------|
Gb|------------------------------------------------------|  
Db|------------------------------------------------------| x2
Ab|-9--9--11--9--11--9--9--9--12--9--9--12--9--9--12--9--|
Db|------------------------------------------------------|
Light Palm Mute

eb|---------------------------------------|
Bb|---------------------------------------|
Gb|-------------------------------14------|
Db|----------------14-----------------14--| x4
Ab|------12-----------------12------------|
Db|-12-------12-------12------------------|

Intro Pt. 2 (Distortion)
eb|----------------------------------------------|
Bb|----------------------------------------------|
Gb|----------------------------------------------|
Db|-4--6--4--6--4--4--4--7--4--4--7--4--4--7--4--| x2
Ab|-4--4--4--4--4--4--4--4--4--4--4--4--4--4--4--|
Db|-4--4--4--4--4--4--4--4--4--4--4--4--4--4--4--|


eb|-14-------------15-------15--14--|
Bb|------15-------------15----------|
Gb|-----------14--------------------|
Db|---------------------------------| x4
Ab|---------------------------------|
Db|---------------------------------|

Verse- DISTORTION
eb|-----------------------------------------------------|
Bb|-----------------------------------------------------|
Gb|-----------------------------------------------------|
Db|-----------------------------------------------------| x2
Ab|-9----11--9--11--9--9--9--12--9--9--12--9--9--12--9--|
Db|-----------------------------------------------------|
[ Tab from: http://www.guitartabs.cc/tabs/f/funeral_for_a_friend/red_is_the_new_black_tab_ver_3.html ]
eb|----------------------------------------------------------------------------|
Bb|----------------------------------------------------------------------------|
Gb|-------------------------------14-------------------------------------------|
Db|----------------14-----------------14------------------14------------11h12--| x2
Ab|------12-----------------12------------------12-----------------12----------|
Db|-12-------12-------12------------------12-------12-------12-----------------|


On the last time round this is played
eb|---------------------------------|
Bb|---------------------------------|
Gb|---------------------------------|
Db|-12--12--12--12--12--12--12--12--|
Ab|-12--12--12--12--12--12--12--12--|
Db|-12--12--12--12--12--12--12--12--|
PM All

Chorus
eb|--------------------------------------------------------------------------------------------------|
Bb|-------------11--10---------------------11--10----------------------------------------------------|
Gb|-----------------------10--10-------------------10/12--12/17--14----------------------------------|
Db|-----------------------------------------------------------------------15--13--13--13--13--13h15--|
Ab|--------------------------------------------------------------------------------------------------|
Db|---13--13----------------------13--13-------------------------------------------------------------|

Breakdown (Played with some sort of flanger)
eb|-----------------------------------------------------|
Bb|-----------------------------------------------------|
Gb|-----------------------------------------------------|
Db|-----------------------------------------------------|
Ab|-9----11--9--11--9--9--9--12--9--9--12--9--9--12--9--|
Db|-----------------------------------------------------|

Bridge
eb|--------------------||------------------|-----------------------------------|
Bb|--------------------||------------------|-----------------------------------|
Gb|--------------------||----------------7-|-----------------------------------|
Db|-0-0---0------------||-4---4---4---7--7-|-0-0---0-0-0-0--0-0-0-0--0-0-0-0-|
Ab|-0-0---0------------||-4---4---4---7--5-|-0-0---0-0-0-0--0-0-0-0--0-0-0-0-|
Db|-0-0---0------------||-4---4---4---7--7-|-0-0---0-0-0-0--0-0-0-0--0-0-0-0-|
PM  . .

Outro
eb|---------------------------------|
Bb|---------------------------------|
Gb|---------------------------------|
Db|-0-0---0-0-0-0--0-0-0-0--0-0-0-0-|
Ab|-0-0---0-0-0-0--0-0-0-0--0-0-0-0-|
Db|-0-0---0-0-0-0--0-0-0-0--0-0-0-0-|
Comments