Funeral For A Friend - Red Is The New Black Chords & Tabs

 

Red Is The New Black Chords & Tabs

Funeral For A Friend Chords & Tabs

Version: 1 Type: Tab 0 ratings
1 star 2 stars 3 stars 4 stars 5 stars
comments

Red Is The New Black Tab

E|--------------------------------------------------|
B|--------------------------------------------------|
G|--------------------------------------------------|
D|--------------------------------------------------|(2x)after u do this 2 times
A|--8-8--10--8--10--8-8-8--11--8-8--11--8-8--11--8--| go to/
E|--------------------------------------------------|     /
                                                         /
                                                    E|--------------------|
                                                    B|--------------------|
                                                    G|-------8--12p8------| (x4)
                                                    D|--------------------|
                                                    A|-8-8-8--------------|
                                                    E|--------------------|
                                                     once you have done this 
                                                     part 4 times keep on doin with distortion /
                                   both parts one after 
                /     (outro)                        another 4 a few times
E|---------------------------------------|
B|---------------------------------------| 
G|---------------------------------------| figure out strumming.play quite fast.
D|-6-6-6-6-6-6-6-6-6----6---6------------|
A|-6-6-6-6-6-6-6-6-6----6---6------------|
E|-4-4-4-4-4-4-4-4-4----4---4------------|
[ Tab from: http://www.guitartabs.cc/tabs/f/funeral_for_a_friend/red_is_the_new_black_tab.html ]
Comments