Funeral For A Friend - Recovery Chords & Tabs

 

Recovery Chords & Tabs

Funeral For A Friend Chords & Tabs

Version: 4 Type: Tab 0 ratings
1 star 2 stars 3 stars 4 stars 5 stars
comments

Recovery Tab

SONG: All The Rage
BAND: Funeral For A Friend
ALBUM: Hours
AWESOMENESS: Infinity Plus One

Here's Recovery. One of the best on the album for sure. And this is, as far as I'm
aware, all 100% right. It certainly sounds it, even to my picky ears.

Comments are encouraged and welcomed. emoluke@gmail.com

-------------
Kris Roberts:
-------------

Intro/Verse

Eb|-----------------------------------------------------------------|
Bb|-------------------------9-------------10---9--------------------|
Gb|-------------------11---------------------------9----------------|
Db|-11------11---9-11----11---11-9-9-11----------------9h11p9---9-9-|
Ab|--9-9-12----9-----------------7-7--9-9----9---9---9--------9-7-7-|
Db|-----------------------------------------------------------------|
       . .                              .    .   .   .        .

Eb|-----------------------------------------------------------------|
Bb|-----------------------------------------------------------------|
Gb|-----------------------------------------------11-13-13-13-13-11-|
Db|-7---7---6---7---9h11--------------7---6---7----x--x--x--x--x--x-|
Ab|-5-5---5---5---5------5-5-7h9-9--5---5---5---5--9-11-11-11-11--9-|
Db|-----------------------------------------------------------------|
      .   .   .   .      . .        .   .   .   .

Pre-Chorus

eb|---------12-----9h10p9--------------------|
Bb|------10-----10--------10-----------------|
Gb|----9---------------------9---------------|
Db|-11--------------------------11-11-9-9----|
Ab|---------------------------------------12-|
Db|------------------------------------------|

eb|---------------------------|
Bb|---------------------------|
Gb|-13---11-11-13-13-14-14-16-|
Db|-x-----x--x--x--x--x--x--x-|
Ab|-11----9--9-11-11-12-12-14-|
Db|---------------------------|

Chorus

eb|-------9-10--12--17--12-10--12-12-9-14-12-|
Bb|-10-12------------------------------------|
Gb|------------------------------------------|
Db|------------------------------------------|
Ab|------------------------------------------|
Db|------------------------------------------|

eb|-------9-10--12--17--12-10-9-------|
Bb|-10-12-----------------------12-10-| (Alternate between these two
Gb|-----------------------------------|  riffs).
Db|-----------------------------------|
Ab|-----------------------------------|
Db|-----------------------------------|

Bridge
[ Tab from: http://www.guitartabs.cc/tabs/f/funeral_for_a_friend/recovery_tab_ver_4.html ]
eb|-------------------------------------------------------------------|
Bb|----------------------(Promise me)---------------------------------|
Gb|-----------11------------------------------------------------------|
Db|---11---------11-------------------------7-------------6-7-9-7-6---|
Ab|-9----12-9-------12-9----------------4-5---5-4---4---9-----------7-|
Db|-----------------------------------7-----------7---9---------------|

Ending

eb|---------------------------------------------------------------------|
Bb|-10------------------------------------------------------------------|
Gb|---------------------------------------------------------------------|
Db|----------------00-0------------00-0------------00-0------------00-4-|
Ab|------0-0-0-0-0-00-0--0-0-0-0-0-00-0--0-0-0-0-0-00-0--0-0-0-0-0-00-4-|
Db|------0-0-0-0-0-00-0--0-0-0-0-0-00-0--0-0-0-0-0-00-0--0-0-0-0-0-00-4-|
         . . . . .       . . . . .       . . . . .       . . . . .

-------------
Darran Smith:
-------------

Intro/Verse

eb|--------------------------------------------|
Bb|--------------------------------------------| (In the second part of the
Gb|--------------------------------------------|  verse, add the same chords
Db|-4---2-2--4---2-2--0---2-4--4---4-6-6-6-6-4-|  muted, during the gaps
Ab|-4---2-2--4---2-2--0---2-4--4---------------|  where Kris plays the
Db|-4---2-2--4---2-2--0---2-4--4---------------|  lead).

Pre-Chorus

eb|----------------------------------------------------------|
Bb|----------------------------------------------------------|
Gb|--------------------------------------------4--4-4-2--2-2-|
Db|-2---2-2--2-2-2-2--2-2-2-2-4---4-4--4-4-4-4-4--4-4-2--2-2-|
Ab|-2---2-2--2-2-2-2--2-2-2-2-4---4-4--4-4-4-4-2--2-2-0--0-0-|
Db|-2---2-2--2-2-2-2--2-2-2-2-4---4-4--4-4-4-4---------------|

Chorus

eb|----------------------------------|
Bb|----------------------------------| (Those hammer-ons at the end may
Gb|------------7--7-------9----------|  not be right. This whole section
Db|-4--4-4--4--7--7-9--9--9----------|  is hard to hear and the endings
Ab|-4--4-4--4--5--5-9--9--7--7h9-7h9-|  change quite a lot, so I'm sorry).
Db|-4--4-4--4-------9--9-------------|

Bridge

eb|-------12---------------------------12--------12----|
Bb|----10----10-----(Promise me)----10--------10----10-| (This riff
Gb|-11----------11---------------11--------11----------|  sometimes
Db|----------------------------------------------------|  overlaps the 
Ab|----------------------------------------------------|  'Promise me'
Db|----------------------------------------------------|  lyric).

Ending

eb|-------------------------------------------------------------------|
Bb|-------------------------------------------------------------------|
Gb|-------------------------------------------------------------------|
Db| 0------------00-0------------00-0------------00-0------------00-4-|
Ab|-0--0-0-0-0-0-00-0--0-0-0-0-0-00-0--0-0-0-0-0-00-0--0-0-0-0-0-00-4-|
Db|-0--0-0-0-0-0-00-0--0-0-0-0-0-00-0--0-0-0-0-0-00-0--0-0-0-0-0-00-4-|
       . . . . .       . . . . .       . . . . .       . . . . .
Comments