Funeral For A Friend - Recovery Chords & Tabs

 

Recovery Chords & Tabs

Funeral For A Friend Chords & Tabs

Version: 3 Type: Tab 0 ratings
1 star 2 stars 3 stars 4 stars 5 stars
comments

Recovery Tab

   
Band: Funeral for a Friend
Album: Hours
Song: Recovery
tranbscribed by - RobynThomas

Key;

x - mute 
   (underneath music bars) palm mute.
/ - slide up
\ - side down
~ - let ring

this is a great song from F.F.A.F's new album 'Hours' probably one of the best on there.   

TUNING - C# G# C# F# A# D#


    RIFF 1 after cymbal intro 1, 2, 3, 4....

Guitar 1 + 2

Verse 1

  |---------------4----------------------------------------------------------------------------------|R
  |-----------7-------------10-9-5-------------------------------------------------------------------|E
  |----6--4h6---6--------------------4/6\4------------------------9/11--11---------11/13-13-13-13\11-|P
  |-4-7-7-----------2-2-2-4----------x-x-x--2-2-2-0--7-6-7-9/11---x-x---x---7-6-7--x--x--x--x--x--x--|E
  |-4---------------2-2-2-4---0-0-0--2/4\2--2-2-2-0---------------7/9---9----------9/-11-11-11-11\9--|A
  |-4---------------2-2-2-4-----------------2-2-2-0---0-0-0----00-----0------0-0-0-------------------|T x4
      x x       x             x x x                   x x x    xx     x      x x x  

CHORUS [00:42]

    Guitar 1 

  |-----------------------------------------------|R
  |-----------------------------------------------|E
  |------------x-9-9-x-9-9-x----------x-9-9-x-9-9-|P
  |-x--7--7-7--x-7-7-x-7-7-x--7--7-7--x-7-7-x-7-7-|E
  |-x--7--7-7--x-7-7-x-7-7-x--7--7-7--x-7-7-x-7-7-|A
  |-x--7--7-7--x-7-7-x-7-7-x--7--7-7--x-7-7-x-7-7-|T x2

    Guitar 2
                                   This is not a new game.......
  |---------12----9h10p9--------------------------12----9h10p9--------------|
  |------10----10--------10--------------------10----10--------10-----------|
  |----9--------------------9----------------9--------------------9---------|
  |-11------------------------11-9--------11------------------------11-9----|
  |--------------------------------12--12--------------------------------12-|
  |-------------------------------------------------------------------------|


   
VERSE 2

Riff 1 

Guitars 1+2

  |---------------4----------------------------------------------------------------------------------|
  |-----------7-------------10-9-5-------------------------------------------------------------------|
  |----6--4h6---6--------------------4/6-4------------------------9/11--11~--------11/13-13-13-13\11-|
  |-4-7-7-----------2-2-2-4----------x-x-x--2-2-2-0--7-6-7-9/11---x-x---x---7-6-7--x--x--x--x--x--x--|
  |-4---------------2-2-2-4---0-0-0--2/4-2--2-2-2-0---------------7/9---9~---------9/-11-11-11-11\9--|
  |-4---------------2-2-2-4-----------------2-2-2-0---0-0-0----00-----0------0-0-0-------------------|
    x x       x             x x x                   x x x    xx     x      x 
    
Chorus  [01:15] 

Guitar 1 

  |--------------------------------------------------|R
  |--------------------------------------------------|E
  |--------------x-9-9-x-9-9-x---------x-9-9-x-9-9-x-|P
  |---x--7~-7-7--x-7-7-x-7-7-x-7~-7-7--x-7-7-x-7-7-x-|E
  |---x--7~-7-7--x-7-7-x-7-7-x-7~-7-7--x-7-7-x-7-7-x-|A
  |---x--7~-7-7--x-7-7-x-7-7-x-7~-7-7--x-7-7-x-7-7-x-|T x2
           

  |--------------------------------------------|R
  |--------------------------------------------|E
  |-------------------------9--9-9-x-9-9-x-9-9-|P
  |--x-0--0-0-x-0-0-x-0-0-x-7--7-7-x-7-7-x-7-7-|E
  |--x-0--0-0-x-0-0-x-0-0-x-7--7-7-x-7-7-x-7-7-|A
  |--x-0--0-0-x-0-0-x-0-0-x-7--7-7-x-7-7-x-7-7-|T x2
 
                  And i can't go on this way...

  |----------------------------------------|R
  |----------------------------------------|E
  |-----------77---77----------------------|P
  |--4-4-4----77---77---2--2-2----2-2h44-4-|E
  |--4-4-4----55---55---2--2-2-------------|A
  |--4-4-4--0----0----0-2--2-2-222-2-------|T x7

  |----------------------------------------|
  |----------------------------------------|
  |----------------------------------------|
  |-0~-------------------------------------|
  |-0~-------------------------------------|
  |-0~-------------------------------------|



Guitar 2
[ Tab from: http://www.guitartabs.cc/tabs/f/funeral_for_a_friend/recovery_tab_ver_3.html ]
  |-----------12----9h10p9--------------------------12----9h10p9--------------|
  |--------10----10--------10--------------------10----10--------10-----------|
  |------9--------------------9----------------9--------------------9---------|
  |---11------------------------11-9--------11------------------------11-9----|
  |----------------------------------12--12--------------------------------12-|
  |---------------------------------------------------------------------------|

  |----------------------|R
  |----------------------|E
  |--9/11-11/13-13/14-14-|P
  |--x-x--x--x--x--x--x--|E
  |--7/9--9/11--11/12-12-|A
  |----------------------|T x3

  |--------------------|
  |--------------------|
  |--13/14-14/16/18-18-|
  |--x-----x--x-----x--|
  |--11/12-12/14/16-16-|
  |--------------------|

  |-----7-9-10-12---12---12---12------7-9-10-12-17-12-10-9-7------|R
  |--10-----------10---10---10------10-----------------------10~--|E
  |---------------------------------------------------------------|P
  |---------------------------------------------------------------|E
  |---------------------------------------------------------------|A
  |---------------------------------------------------------------|T x3
    On last repeat let the final note ring

VERSE 3 [2:11]


 Guitar 1 quite fast
  
                    
                  |
  |----------------------------------------------------5p4---|R
  |--------------------------------------------------------5-|E
 o|--------11----------------------------------------5-------|P
 o|---11-7----11-7-----------------7---------0-4-5-7---------|E
  |-9-----9-------9----------0-4-5---5-4-0-4-----------------|A
  |----------------------------------------------------------|T x8 1/2
    x     x       |
  stop repeat here|
                promise me...                                 promise me...

Guitar 2


  |-------12----|
  |----10----10-|
  |-11----------|
  |-------------|
  |-------------|
  |-------------|
                promise me...

  |-------12-------12----------12----|
  |----10-------10----10----10----10-|
 o|-11-------11----------11----------|o
 o|----------------------------------|o
  |----------------------------------|
  |----------------------------------| x4

                                     Promise me
 

  ||-------12-------12----------12-------12-----||-------12----|
  ||----10-------10----10----10-------10----10--||----10----10-|
  ||o-11-------11----------11-------11---------o||-11----------|
  ||o------------------------------------------o||-------------|
  ||--------------------------------------------||-------------|
  ||--------------------------------------------||-------------|
      REPEAT x4                                X4

CHORUS [2:55]

Guitar 1

  |----------------------------------------|R
  |----------------------------------------|E
  |-----------77---77----------------------|P
  |--4-4-4----77---77---2--2-2----2-2h44-4-|E
  |--4-4-4----55---55---2--2-2-------------|A
  |--4-4-4--0----0----0-2--2-2-222-2-------|T x4

Guitar 2

  |-----7-9-10-12---12---12---12------7-9-10-12-17-12-10-9-7------|R
  |--10-----------10---10---10------10----------------------------|E
  |---------------------------------------------------------------|P
  |---------------------------------------------------------------|E
  |---------------------------------------------------------------|A
  |---------------------------------------------------------------|T x2

OUTRO [3:14]

Guitars 1+2

  |---------------------------------------------------------------------------|
  |---------------------------------------------------------------------------| 
  |---------------------------------------------------------------------------|
  |-0--0-0-0-0-0--0-0-0--0-0-0-0-0--0-0-0--0-0-0-0-0--0-0-0--0-0-0-0-0--0-0-4-|
  |-0--0-0-0-0-0--0-0-0--0-0-0-0-0--0-0-0--0-0-0-0-0--0-0-0--0-0-0-0-0--0-0-4-|
  |-0--0-0-0-0-0--0-0-0--0-0-0-0-0--0-0-0--0-0-0-0-0--0-0-0--0-0-0-0-0--0-0-4-|
pm     x x x x x    x    x x x x x    x    x x x x x    x    x x x x x    x

                                     END
this is the first tab ive ever done, i hope its alright, enjoy! if there is any problems email me.. 

rjthomas12000@yahoo.co.uk
Comments