Funeral For A Friend - Recovery Chords & Tabs

 

Recovery Chords & Tabs

Funeral For A Friend Chords & Tabs

Version: 2 Type: Tab 0 ratings
1 star 2 stars 3 stars 4 stars 5 stars
comments

Recovery Tab

Okay, so the only other tab for the intro to this is absolutely diabolical. So here's
one that's correct, for Kris' guitar. Darran plays the lower chords, so a 4th fret
first, then 2-2-4, then 2-2-0, then 2-4-4.

emoluke@gmail.com with suggestions/comments/corrections.
[ Tab from: http://www.guitartabs.cc/tabs/f/funeral_for_a_friend/recovery_tab_ver_2.html ]
Eb|-----------------------------------------------------------------|
Bb|-------------------------9-------------10---9--------------------|
Gb|-------------------11---------------------------9----------------|
Db|-11------11---9-11----11---11-9-9-11----------------9h11p9---9-9-|
Ab|--9-9-12----9-----------------7-7--9-9----9---9---9--------9-7-7-|
Db|-----------------------------------------------------------------|

Eb|-----------------------------------------------------------------|
Bb|-----------------------------------------------------------------|
Gb|-----------------------------------------------11-13-13-13-13-11-|
Db|-7---7---6---7---9h11--------------7---6---7----x--x--x--x--x--x-|
Ab|-5-5---5---5---5------5-5-7h9-9--5---5---5---5--9-11-11-11-11--9-|
Db|-----------------------------------------------------------------|
Comments