Funeral For A Friend - Recovery Chords & Tabs

 

Recovery Chords & Tabs

Funeral For A Friend Chords & Tabs

Version: 1 Type: Tab 0 ratings
1 star 2 stars 3 stars 4 stars 5 stars
comments

Recovery Tab

Part 1
----------------------------------------------------------|
-------------------------------8-----9-8------------------|
-----------------------------8-----------8----------------|
----------------8-------8-10---------------8/10/8---------|
--8-----8-10-11---10-11-----------------------------------|
----------------------------------------------------------|
[ Tab from: http://www.guitartabs.cc/tabs/f/funeral_for_a_friend/recovery_tab.html ]
Part 2
------------------------------------------------------------|
------------------------------------------------------------|
------------------------------------------------------------|
---6-5-6--8H10-----6/8-8---6-5-6----------------------------|
-----------------------------------10-10-10-10-10-8-8-------|
-0--0-0--------0-0--------0-0-0-----------------------------|

All 0's part 2 are palm muted!

Ok guys, this is the lead part of the song, Kris plays this at the very beginning.I 
it sounds pretty close but rate it and send me some corrections to this address rabiddog87@gmail.com
Comments